The Beatles

The Beatles
She's A Woman (Guitar tab)

---------------------------------------------------------------
THE BEATLES - SHE'S A WOMAN (first released as the B side of
the I FEEL FINE single on 27th November 1964)

--------------------------------------------------------------

Tabbed by:PJVillanueva





Chords: A7 575685
D7 x57578
E7 x 7 9 7 9 10
E 022100
Dbm x46654
F# 255422
D xx0232







A7 D7 A7
My love don't give me presents

D7 A7
I know that she's no peasant

D7
Only ever has to give me


love forever and forever

A7 D7 A7
My love don't give me presents

E7
Turn me on when I get lonely

D7 A7
People tell me that she's only foolin'

D7 A7 E
I know she isn't





A7 D7 A7
She don't give boys the eye

D7 A7
She hates to see me cry

D7
She is happy just to hear me


Say that I will never leave her

A7 D7 A7
She don't give boys the eye

E7
She will never make me jealous

D7 A7
Give me all the time as well as lovin'

D7 A7
Don't ask me why






Chorus:


Dbm F#
She's a woman who understands

Dbm D E
She's a woman who loves her man






A7 D7 A7
My love don't give me presents

D7 A7
I know that she's no peasant

D7
Only ever has to give me


Love forever and forever

A7 D7 A7
My love don't give me presents

E7
Turn me on when I get lonely

D7 A7
People tell me that she's only foolin'

D7 A7 E
I know she isn't




Solo: A7 D7 A7 E7 D7 A7



Chorus




A7 D7 A7
My love don't give me presents

A7 D7 A7
I know that she's no peasant

D7
Only ever has to give me

D7 A7
Love forever and forever

D7 A7
My love don't give me presents

E7
Turn me on when I get lonely

D7 A7
People tell me that she's only foolin'

D7 A7
I know she isn't.




A7 D7
She's a woman...She's a woman...She's a woman

A7
She's a woman........Fade away






Solo


e|------ 8----- ---5-- ------|------ ------ ------ ------|
B|---------------------------|---------------------------|
G|---------------------------|7-B-8-----8-R-7------5--/--|
D|---------------------------|---------------------------|
A|---------------------------|---------------------------|
E|---------------------------|---------------------------|
...................................................... 2 times



e|------ 10------ ---8--- ---|7----7 ----7-\5------ -----|
B|---------------------------|---------------------------|
G|11--------------9---------7|-----------7-\5-----------5/
D|---------------------------|---------------------------|
A|---------------------------|---------------------------|
E|---------------------------|---------------------------|




e|------ 5----- ----3- ------|2----2 ----2-\0------ -----|
B|---------------------------|---------------------------|
G|6-------------4-----------2|-----2-----2-\0------------|
D|---------------------------|--------------------------5/
A|---------------------------|---------------------------|
E|---------------------------|---------------------------|




e|------ ------ -----7 ------|----10 ----10 \-8--- ------|
B|-------5-------------------|---------------------10----|
G|-----------4-/7------/---11|----11-----11-\-9----------|
D|6--------------------------|---------------------------|
A|---------------------------|---------------------------|
E|---------------------------|---------------------------|




e|------ 8----- ---5-- ------|------ ------ ------ ------|
B|---------------------------|---------------------------|
G|---------------------------|7-B-8-----8-R-7------5-----|
D|---------------------------|---------------------------|
A|---------------------------|---------------------------|
E|---------------------------|---------------------------|









B Bend
R Release
/ Slide up
\ Slide down
H Hammer-on
P Pull-off
~ Vibrato
+ Harmonic
x Mute note
. Play note like a dot in standard notation
^ Ties two notes together
(. Pause

pjvill

Submitted by pjvill at Thu 15 Dec, 2005 9:57 am

Author: ?
Composer: ?
Publisher: ?
Language: English

Reactions

CommonCrawl [Bot]

Follow Muzikum