The Beatles

The Beatles
She Said She Said (Guitar tab)

------------------------------------------------------------------
THE BEATLES - SHE SAID SHE SAID (Lennon/McCartney) From REVOLVER
album. Released on 4th August 1966.

------------------------------------------------------------------

Tabbed by:PJVillanueva





She said "I know what it's like to be dead"
I know what it is to be sad
And she's making me feel like I've never been born.

I said "Who put all those things in your head?"
Things that make me feel that I'm mad
And you're making me feel like I've never been born.

She said "you don't understand what I said"
I said "No, no, no, you're wrong"
When I was a boy everything was right
Everything was right

I said "Even though you know what you know
I know that I'm ready to leave
'Cause you're making me feel like I've never been born."

She said "you don't understand what I said"
I said "No, no, no, you're wrong"
When I was a boy everything was right
Everything was right

I said "Even though you know what you know
I know that I'm ready to leave
'Cause you're making me feel like I've never been born."

She said , she said "I know what it's like to be dead"
("I know what it's like to be dead")

I know what it is to be sad...






Use a capo on the first fret.




e|------- ------- ------- -------|------- ------- ------- -------|
B|-------------------------------|----0---2-H-3---2-H-3---5------|
G|-------------------------------|2-P-0-----------------------2--|
D|-------------------------------|-------------------------------|
A|-------------------------------|-------------------------------|
E|-------------------------------|-------------------------------|



A A7
e|------- ------- ------- 0------|------- ------- ------- -------|
B|--------2-----------2----------|----2-----------2--------------|
G|--------2-----0----------------|----0-----0-----0---2-----0----|
D|----------------2--------------|------------2---------------2--|
A|0------------------------------|0------------------------------|
E|-------------------------------|-------------------------------|

e|------- ------- ------- -------|------- ------- ------- -------|
B|-------------------------------|-------------------------------|
G|--------2-----------2---2------|----2-----------2---2-----2-2--|
D|-------------------------------|-------------------------------|
A|-------------------------------|-------------------------------|
E|-------------------------------|-------------------------------|



Asus4 A7sus4 D
e|------- ------- ------- --3----|------- ------- ------- -------|
B|----2-----------3-----3--------|----3-----------3---------3----|
G|----0-----------2-----2--------|2---2-----2-----2-----2-----2--|
D|2------------------------------|0---------0-----------0-----0--|
A|0---------------------------0--|------------0------------------|
E|-------------------------------|-------------------------------|
She said "I know what it's
e|------- ------- ------- -------|------- ------- ------- -------|
B|-------------------------------|-------------------------------|
G|2---2-----------2-----2---2----|2-------2-------2-----2---2-2--|
D|-------------------------------|-------------------------------|
A|-------------------------------|-------------------------------|
E|-------------------------------|-------------------------------|



A Asus4 A7sus4 D
e|------- ------- ------- ----3--|2------ ------- ------- -------|
B|--------2-----------3-------3--|3-------3-----------3-------3--|
G|2-------2-----0-----2----------|--------2-----2-----2-----2----|
D|2-------2-------2--------------|-------------------------------|
A|0-------0-------0--------------|----------------0--------------|
E|-------------------------------|-------------------------------|
like to be dead" I know what it
e|------- ------- ------- -------|------- ------- ------- -------|
B|--------------------0---2-H-3--|2------------------------------|
G|2-------2-------2--------------|--------2-----------2-----2-2--|
D|-------------------------------|-------------------------------|
A|-------------------------------|-------------------------------|
E|-------------------------------|-------------------------------|



A Asus4 D
e|------- ------- ------- -------|----2-- ----0-- ------- -------|
B|----2---------------3-----3----|----3-------3-------3---3---3--|
G|----2-----2-----0--------------|----2-------2---------2-2---2--|
D|----------2-----2--------------|0------------------------------|
A|0------------------------------|-------------------------------|
E|-------------------------------|-------------------------------|
is to be sad And she's
e|------- ------- ------- -------|------- ------- ------- -------|
B|--------------------0---2-H-3--|2-H-3---5----------------------|
G|2-------2-------2--------------|------------2-------2-2-2---2--|
D|-------------------------------|-------------------------------|
A|-------------------------------|-------------------------------|
E|-------------------------------|-------------------------------|




A G D A
e|------- ------- ------- -------|------- ------- ------- -------|
B|2---2-------3-------3----------|3-----------2-------2-------2--|
G|2---2-------0-------0-------0--|2---2-------2-------2-------2--|
D|2---2-------0-------0-------0--|0---0-------2-------2-------2--|
A|0-----------2------------------|-------------------------------|
E|------------3------------------|-------------------------------|
making me feel like I've never been born.



A G D A
e|------- ------- ------- -------|------- ------- ----0-- -------|
B|2-----------3------------------|3-----------2-------2-------2--|
G|2-----------0------------------|2-----------2---------------2--|
D|2-----------0------------------|0-----------2------------------|
A|0-----------2------------------|-------------------------------|
E|------------3------------------|-------------------------------|

e|------- ------- ------- -------|------- ------- ------- -------|
B|-------------------------------|-------------------------------|
G|4B5R4---2---4-------0----------|2-P-0--------------------------|
D|-------------------------------|--------2----------------------|
A|-------------------------------|------------0-------0-----0-0--|
E|-------------------------------|-------------------------------|



A Asus4 A7sus4 D
e|0------ ------- ------- 3------|------- ------- ------- -------|
B|2-------2-----2H3---3---3------|----3-----------3-------3------|
G|2-------2-----2-2---2----------|----------2-----2-------2------|
D|-------------------------------|0---------------------0--------|
A|-------------------------------|-------------------------------|
E|-------------------------------|-------------------------------|
I said "Who put all those
e|------- ------- ------- -------|------- ------- ------- -------|
B|-------------------------------|-------------------------------|
G|2-------2-----2-2---2---2------|2---2-------2---2-------2------|
D|-------------------------------|-------------------------------|
A|-------------------------------|-------------------------------|
E|-------------------------------|-------------------------------|



A7 Asus4 D
e|----0-- ------- ------- -------|------- ----2-- ------- -------|
B|----2-------------3---------3--|3-----------3-------3-------3--|
G|----------0-------2---------2--|2---2-------2-----------2---2--|
D|----------2--------------------|0------------------------------|
A|0------------------------------|-------------------------------|
E|-------------------------------|-------------------------------|
things in your head?" Things that make me
e|------- ------- ------- -------|------- ------- ------- -------|
B|--------------------0---2-H-3--|2------------------------------|
G|2-------2-------2--------------|--------2-------------------2--|
D|-------------------------------|-------------------------------|
A|-------------------------------|-------------------------------|
E|-------------------------------|-------------------------------|



A Asus4 A7sus4 D
e|------- ------- ------- ----3-P|2------ ------- ------- -------|
B|----2-------2-H-3---3-------3--|--------3-----------3-------3--|
G|----2-------2-------2-------2--|--------2---2-------2-------2--|
D|2------------------------------|-------------------------------|
A|0------------------------------|-------------------------------|
E|-------------------------------|-------------------------------|
feel that I'm mad And you're
e|------- ------- ------- -------|------- ------- ------- -------|
B|--------------------0---2-H-3--|2-H-3---5----------------------|
G|2---------------2--------------|------------2-------2-------2--|
D|-------------------------------|-------------------------------|
A|-------------------------------|-------------------------------|
E|-------------------------------|-------------------------------|



A G D A
e|------- ----3-- ------- -------|------- ------- ------- -------|
B|2---2-------3-------3-------3--|3---3---3---2-------2---2------|
G|2---2-------0-------0-------0--|2---2---2---2-------2---2------|
D|2---2-------0-------0-------0--|0-----------2-------2---2------|
A|0------------------------------|------------0-------0---0------|
E|-------------------------------|-------------------------------|
making me feel like I've never been born.



A G D A
e|0------ ----3-- ------- -------|2------ ----0-- ----0-- 0---0--|
B|2-----------3------------------|3-----------2-------2---2---2--|
G|2-----------0------------------|2-----------2-------2---2---2--|
D|2-----------0------------------|0-----------2-------2---2---2--|
A|0------------------------------|------------0-------0---0---0--|
E|-------------------------------|-------------------------------|

e|------- ------- ------- -------|------- ------- ------- -------|
B|-------------------------------|-------------------------------|
G|4B5R4---2---4-------0----------|2-P-0--------------------------|
D|-------------------------------|--------2----------------------|
A|-------------------------------|------------0-------0---0---0--|
E|-------------------------------|-------------------------------|



A G A
e|0------ 0------ 3------ 3---3--|0------ 0---0-- 0---0-- 0---0--|
B|2-------2-------3-------3---3--|2-------2---2---2---2---2---2--|
G|2-------2-------0-------0---0--|2-------2---2---2---2---2---2--|
D|2-------2-------0-------0---0--|2-------2---2---2---2---2---2--|
A|0-------0-------2-------2---2--|0-------0---0---0---0---0---0--|
E|----------------3-------3---3--|-------------------------------|
She said "you don't understand what I said" I said
e|------- ------- ------- -------|------- ------- ------- -------|
B|-------------------------------|-------------------------------|
G|-------------------------------|-------------------------------|
D|-------------------------------|-------------------------------|
A|0------------------------------|--------------------7----------|
E|------------------------10--\--|5-------5-----7/9-------9---\--|



G A
e|3------ 3---3-- 3---3--|0------ 0---0-- 0---0--|
B|3-------3---3---3---3--|2-------2---2---2---2--|
G|0-------0---0---0---0--|2-------2---2---2---2--|
D|0-------0---0---0---0--|2-------2---2---2---2--|
A|2-------2---2---2---2--|0-------0---0---0---0--|
E|3-------3---3---3---3--|-----------------------|
"No, no, no, you're wrong" When I was a

e|------- ------- -------|------- ------- -------|
B|-----------------------|-----------------------|
G|-----------------------|-----------------------|
D|-----------------------|-----------------------|
A|-----------------------|-----------------------|
E|3----------------------|5-------------------5--|



Em A
e|0---0-- 0------ 0---0--|0---0-- 0------ 0------|
B|0---0---0-------0---0--|2---2---2-------2------|
G|0---0---0-------0---0--|2---2---2-------2------|
D|2---2---2-------2---2--|2---2---2-------2------|
A|2---2---2-------2---2--|0---0---0-------0------|
E|0---0---0-------0---0--|-----------------------|
boy

e|------- ------- -------|------- ------- -------|
B|0-------3---2---0------|-----------------------|
G|-----------------------|2-------0--------------|
D|-----------------------|------------4---2------|
A|-----------------------|-----------------------|
E|-----------------------|-----------------------|



D A
e|0---0-- 0------ 0---0--|2------ 2------ 2---0--|
B|2---2---2-------2---2--|3-------3-------3---2--|
G|2---2---2-------2---2--|2-------2-------2---2--|
D|2---2---2-------2---2--|0-------0-------0---2--|
A|0---0---0-------0---0--|--------------------0--|
E|-----------------------|-----------------------|
everything was right

e|------- ------- -------|------- ------- -------|
B|-----------------------|----------------3------|
G|----------------2------|------------2----------|
D|------------2----------|0-------4--------------|
A|0-------4--------------|-----------------------|
E|-----------------------|-----------------------|




e|0---0-- 0------ 0------|0---0-- 0---0-- 0---0--|
B|2---2---2-------2------|2---2---2---2---2---2--|
G|2---2---2-------2------|2---2---2---2---2---2--|
D|2---2---2-------2------|2---2---2---2---2---2--|
A|0---0---0-------0------|0---0---0---0---0---0--|
E|-----------------------|-----------------------|
Everything was

e|------- ------- -------|------- ------- -------|
B|-----------------------|-----------------------|
G|----------------2------|----------------2------|
D|------------2----------|------------2----------|
A|0-------4--------------|0-------4--------------|
E|-----------------------|-----------------------|




D
e|2------ 2------ 2---0--|
B|3-------3-------3---2--|
G|2-------2-------2---2--|
D|0-------0-------0---2--|
A|--------------------0--|
E|-----------------------|
right

e|------- ------- -------|
B|----------------3------|
G|------------2----------|
D|0-------4--------------|
A|-----------------------|
E|-----------------------|



A Asus4 A7sus4 D
e|------- ------- ------- 3------|------- ------- ------- 2------|
B|2-------2-----2-2-H-3---3------|--------3-----------3---3---3--|
G|2-------2-----2-0-------0------|2-------------2-----2-------2--|
D|2-------2-----2-2-------2------|0---------------0--------------|
A|0-------0-----0-0--------------|-------------------------------|
E|-------------------------------|-------------------------------|
I said "Even though you
e|------- ------- ------- -------|------- ------- ------- -------|
B|-------------------------------|-------------------------------|
G|2-------2-----2-2---2---2-2-2--|2-------2-----2-2---2-------2--|
D|-------------------------------|-------------------------------|
A|-------------------------------|-------------------------------|
E|-------------------------------|-------------------------------|



A A7sus4 D
e|------- ------- ------- 3------|------- ------- ------- -------|
B|2-------2-----2-3-------3------|3-------------------3---3---3--|
G|2-------2-----2-0-------0------|2-------2---2-------2---2---2--|
D|2-------2-----2-2-------2------|0-------0---0-------0---0---0--|
A|0-------0-----0-0--------------|-------------------------------|
E|-------------------------------|-------------------------------|
know what you know I know that I'm
e|------- ------- ------- -------|------- ------- ------- -------|
B|--------------------0---2---3--|2------------------------------|
G|2-------2-----2-2--------------|--------2-----------2-2-2-2-2--|
D|-------------------------------|-------------------------------|
A|-------------------------------|-------------------------------|
E|-------------------------------|-------------------------------|



A Asus4 A7sus4 D
e|------- ------- ------- 3------|------- ------- ------- -------|
B|2-------2---2---3---3---3------|--------------3---------3------|
G|2-------2---2---2---2---2------|2-------2-----2-----2---2---2--|
D|2-------2---2---2---2----------|0-------0-----0-----0-------0--|
A|0-------0---0---0---0----------|0-------0----------------------|
E|-------------------------------|-------------------------------|
ready to leave 'Cause you're
e|------- ------- ------- -------|------- ------- ------- -------|
B|--------------------0---2-H-3--|2-H-3---5----------------------|
G|2-------2-------2--------------|------------2-------2-2-2-2-2--|
D|-------------------------------|-------------------------------|
A|-------------------------------|-------------------------------|
E|-------------------------------|-------------------------------|



A G D A
e|------- ----3-- ------- ----3--|2------ ----0-- ----0-- ----0--|
B|2-------2---3---------------3--|3-----------2-------2-------2--|
G|2-------2---0---------------0--|2-------2---2-------2-------2--|
D|2-------2---0---------------0--|0-------0---2-------2-------2--|
A|0-------0---2------------------|------------0-------0-------0--|
E|------------3------------------|-------------------------------|
making me feel like I've never been born."



G D A
e|0------ ----3-- ------- -------|2------ ----0-- ----0-- 0---0--|
B|2-----------3------------------|3-----------2-------2---2---2--|
G|2-----------0------------------|2-----------2-------2---2---2--|
D|2-----------0------------------|0-----------2-------2---2---2--|
A|0-----------2------------------|------------0-------0---0---0--|
E|------------3------------------|-------------------------------|

e|------- ------- ------- -------|------- ------- ------- -------|
B|-------------------------------|-------------------------------|
G|4B5R4---2---4-------0----------|2-P-0--------------------------|
D|-------------------------------|--------2----------------------|
A|-------------------------------|------------0-------0---0---0--|
E|-------------------------------|-------------------------------|




G A
e|0------ 0---0-- 3------ 3---0--|0------ 0------ ----0-- 0------|
B|2-------2---2---3-------3---2--|2-------2-----------2---2---0--|
G|2-------2---2---0-------0---2--|2-------2-----------2---2---0--|
D|2-------2---2---0-------0---2--|2-------2-----------2---2---0--|
A|0-------0---0---2-------2---0--|0-------0-----------0---0------|
E|----------------3-------3------|-------------------------------|
She said "you don't understand what I said" I said
e|------- ------- ------- -------|------- ------- ------- -------|
B|-------------------------------|-------------------------------|
G|-------------------------------|-------------------------------|
D|-------------------------------|-------------------------------|
A|0------------------------------|--------------------7----------|
E|------------------------10--\--|5-------5-----7/9-------9---\--|




G A
e|3------ 3---3-- 3---3--|0------ 0------ 0---0--|
B|3-------3---3---3---3--|2-------2-------2---0--|
G|0-------0---0---0---0--|2-------2-------2---0--|
D|0-------0---0---0---0--|2-------2-------2---2--|
A|2-------2---2---2---2--|0-------0-------0---2--|
E|3-------3---3---3---3--|--------------------0--|
"No, no, no, you're wrong" When I was a
e|------- ------- -------|------- ------- -------|
B|-----------------------|-----------------------|
G|-----------------------|-----------------------|
D|-----------------------|-----------------------|
A|-----------------------|-----------------------|
E|3----------------------|5-------------------5--|



Em A
e|0------ 0------ 0------|0---0-- 0------ 0------|
B|0-------0-------0------|2---2---2-------2------|
G|0-------0-------0------|2---2---2-------2------|
D|2-------2-------2------|2---2---2-------2------|
A|2-------2-------2------|0---0---0-------0------|
E|0-------0-------0------|-----------------------|
boy
e|------- ------- -------|------- ------- -------|
B|0-------3---2---0------|-----------------------|
G|-----------------------|2-------0--------------|
D|-----------------------|------------4---2------|
A|-----------------------|-----------------------|
E|-----------------------|-----------------------|



D
e|0---0-- 0------ 0------|2------ 2---2-- 2---0--|
B|2---2---2-------2------|3-------3---3---3---0--|
G|2---2---2-------2------|2-------2---2---2---0--|
D|2---2---2-------2------|0-------0---0---0------|
A|0---0---0-------0------|-----------------------|
E|-----------------------|-----------------------|
everything was right
e|------- ------- -------|------- ------- -------|
B|-----------------------|----------------3------|
G|----------------2------|------------2----------|
D|------------2----------|0-------4--------------|
A|0-------4--------------|-----------------------|
E|-----------------------|-----------------------|




A
e|0------ 0------ 0------|0---0-- 0---0-- 0---0--|
B|2-------2-------2------|2---2---2---2---2---2--|
G|2-------2-------2------|2---2---2---2---2---2--|
D|2-------2-------2------|2---2---2---2---2---2--|
A|0-------0-------0------|0---0---0---0---0---0--|
E|-----------------------|-----------------------|
Everything was
e|------- ------- -------|------- ------- -------|
B|-----------------------|-----------------------|
G|----------------2------|----------------2------|
D|------------2----------|------------2----------|
A|0-------4--------------|0-------4--------------|
E|-----------------------|-----------------------|




D A
e|2------ 2------ 2---0--|
B|3-------3-------3---2--|
G|2-------2-------2---2--|
D|0-------0-------0---2--|
A|--------------------0--|
E|-----------------------|
right
e|------- ------- -------|
B|----------------3------|
G|------------2----------|
D|0-------4--------------|
A|-----------------------|
E|-----------------------|




Asus4 A7sus4 D
e|------- ------- ------- 3------|------- ------- ------- -------|
B|2-------2-----2-2-H-3---3------|--------3-----------3-------3--|
G|2-------2-----2-0-------0------|2-------------2-----2-------2--|
D|2-------2-----2-2-------2------|0---------------0--------------|
A|0-------0-----0-0--------------|-------------------------------|
E|-------------------------------|-------------------------------|
I said "Even though you
e|------- ------- ------- -------|------- ------- ------- -------|
B|-------------------------------|-------------------------------|
G|2-------2-------2-------2------|2-------2-----2-2---2---2---2--|
D|-------------------------------|-------------------------------|
A|-------------------------------|-------------------------------|
E|-------------------------------|-------------------------------|




A A7sus4 D
e|------- ------- ------- -------|------- ----2-- ------- -------|
B|2-------2-----2-3-------3------|3-------3---3-------3-------3--|
G|2-------2-----2-0-------0------|2-------2-----------2-------2--|
D|2-------2-----2-2-------2------|0-------0-----------0-------0--|
A|0-------0-----0-0--------------|-------------------------------|
E|-------------------------------|-------------------------------|
know what you know I know that I'm
e|------- ------- ------- -------|------- ------- ------- -------|
B|--------------------0---2---3--|2------------------------------|
G|2-------2-----2-2--------------|--------2-----------2-2-2-2-2--|
D|-------------------------------|-------------------------------|
A|-------------------------------|-------------------------------|
E|-------------------------------|-------------------------------|




A Asus4 A7sus4 D
e|------- ------- ------- 3------|------- 2------ ------- -------|
B|2-------2---2-H-3---3----------|--------3---3-----------3---3--|
G|2-------2---2-------2----------|--------2---------------2---2--|
D|2-------2---2-------2----------|0-------------------0---0---0--|
A|0-------0---0-------0----------|-------------------------------|
E|-------------------------------|-------------------------------|
ready to leave 'Cause you're
e|------- ------- ------- -------|------- ------- ------- -------|
B|--------------------0---2-H-3--|2-H-3---5----------------------|
G|2-------2-------2--------------|------------2-------2-2-2-2-2--|
D|-------------------------------|-------------------------------|
A|-------------------------------|-------------------------------|
E|-------------------------------|-------------------------------|




A G D A
e|------- ----3-- ------- -------|------- 2---0-- ------- -------|
B|2---2-------3------------------|----3---3---2------------------|
G|2---2-------0------------------|----2---2---2------------------|
D|2---2-------0------------------|0-------0---2------------------|
A|0---0-------2------------------|------------0------------------|
E|------------3------------------|-------------------------------|
making me feel like I've never been born."
e|------- ------- ------- -------|------- ------- ------- -------|
B|-------------------------------|-------------------------------|
G|2-----------2------------------|2-----------2-------2-2-2-2-2--|
D|-------------------------------|-------------------------------|
A|-------------------------------|-------------------------------|
E|-------------------------------|-------------------------------|




G D A
e|0------ ----3-- ------- -------|2------ ----0-- ----0-- 0---0--|
B|2-----------3------------------|3-----------2-------2---2---2--|
G|2-----------0------------------|2-----------2-------2---2---2--|
D|2-----------0------------------|0-----------2-------2---2---2--|
A|0-----------2------------------|------------0-------0---0---0--|
E|------------3------------------|-------------------------------|

e|------- ------- ------- -------|------- ------- ------- -------|
B|-------------------------------|-------------------------------|
G|4B5R4---2---4-------0----------|2-P-0-------2-------2---2---2--|
D|-------------------------------|--------2----------------------|
A|-------------------------------|-------------------------------|
E|-------------------------------|-------------------------------|




A
e|0---0-- 0------ 0---0-0 0-0-0--|0------ 0------ 0---0-0 0-0-0--|
B|2---2---2-------2---2-2-2-2-2--|2-------2-------2---2-2-2-2-2--|
G|2---2---2-------2---2-2-2-2-2--|2-------2-------2---2-2-2-2-2--|
D|2---2---2-------2---2-2-2-2-2--|2-------2-------2---2-2-2-2-2--|
A|0---0---0-------0---0-0-0-0-0--|0-------0-------0---0-0-0-0-0--|
E|-------------------------------|-------------------------------|
She said She said
I know what it's
e|------- ------- ------- -------|------- ------- ------- -------|
B|-------------------------------|--------------------0---2-H-3--|
G|2-------2-------2---2-2-2-2-2--|2---2---2-------2--------------|
D|-------------------------------|-------------------------------|
A|-------------------------------|-------------------------------|
E|-------------------------------|-------------------------------|




e|------- 0------ 0---0-0 0-0-0--|0---0-- ----0-- 0---0-0 0-0-0--|
B|--------2-------2---2-2-2-2-2--|2---2-------2---2---2-2-2-2-2--|
G|--------2-------2---2-2-2-2-2--|2---2-------2---2---2-2-2-2-2--|
D|--------2-------2---2-2-2-2-2--|2---2-------2---2---2-2-2-2-2--|
A|--------0-------0---0-0-0-0-0--|0---0-------0---0---0-0-0-0-0--|
E|-------------------------------|-------------------------------|
I know what it's like to be dead
like to be dead I know what it
e|------- ------- ------- -------|------- ------- ------- -------|
B|2-H-3---5----------------------|--------------------0---2-H-3--|
G|------------2---2---2-2-2-2-2--|2---2-------2---2--------------|
D|-------------------------------|-------------------------------|
A|-------------------------------|-------------------------------|
E|-------------------------------|-------------------------------|



Asus4
e|0------ ------- 0---0-0 0-0-0--|0------ ------- 0---0-0 0-0-0--|
B|2---------------2---2-2-2-2-2--|3---------------3---3-3-3-3-3--|
G|2---------------2---2-2-2-2-2--|2---------------2---2-2-2-2-2--|
D|2---------------2---2-2-2-2-2--|2---------------2---2-2-2-2-2--|
A|0---------------0---0-0-0-0-0--|0---------------0---0-0-0-0-0--|
E|-------------------------------|-------------------------------|
I know what it is to be sad
is to be sad I know what it's
e|------- ------- ------- -------|------- ------- ------- -------|
B|2-H-3---5----------------------|-------------------------------|
G|----------------2---2-2-2-2-2--|2-----------2---2---2-2-2-2-2--|
D|-------------------------------|-------------------------------|
A|-------------------------------|-------------------------------|
E|-------------------------------|-------------------------------|
...........................Fade out............................



A Asus4
e|0------ ------- 0---0-0 0-0-0--|0------ ------- 0---0-0 0-0-0--|
B|2---------------3---3-3-3-3-3--|2---------------3---3-3-3-3-3--|
G|2---------------2---2-2-2-2-2--|2---------------2---2-2-2-2-2--|
D|2---------------2---2-2-2-2-2--|2---------------2---2-2-2-2-2--|
A|0---------------0---0-0-0-0-0--|0---------------0---0-0-0-0-0--|
E|-------------------------------|-------------------------------|
I know what it's like to be dead
like to be dead
e|------- ------- ------- -------|------- ------- ------- -------|
B|-------------------------------|-------------------------------|
G|2---2-2-2-2-2---2--------------|-------------------------------|
D|-------------------------------|-------------------------------|
A|-------------------------------|-------------------------------|
E|-------------------------------|-------------------------------|
...............................................................









B Bend
R Release
/ slide up
\ slide down
H hammer-on
P pull-off
~ vibrato
+ harmonic
x Mute note
. - play note like a dot in standard notation
^ - ties two notes together
(. Pause

pjvill

Submitted by pjvill at Thu 15 Dec, 2005 9:56 am

Author: ?
Composer: ?
Publisher: ?
Language: English

Reactions

CommonCrawl [Bot]

Follow Muzikum