The Beatles

The Beatles
She Loves You Ver 2 (Guitar tab)

--------------------------------------------------------------------
THE BEATLES - SHE LOVES YOU (Lennon/McCartney) First released as a
single along with I'LL GET YOU on 23rd August 1963.

--------------------------------------------------------------------

Tabbed by:PJVillanueva





She loves you, yeah, yeah, yeah
She loves you, yeah, yeah, yeah
She loves you, yeah, yeah, yeah, yeah

You think you lost your love,
When I saw her yesterday.
It's you she's thinking of
And she told me what to say.
She says she loves you
And you know that can't be bad.
Yes, she loves you
And you know you should be glad. Ooh!

She said you hurt her so
She almost lost her mind.
She said to let you know
You're not the hurting kind.
She says she loves you
And you know that can't be bad.
Yes, she loves you
And you know you should be glad. Ooh!

She loves you, yeah, yeah, yeah
She loves you, yeah, yeah, yeah
And with a love like that
You know you should be glad.

And now it's up to you,
I think it's only fair,
Pride can hurt you, too,
Apologize to her
Because she loves you
And you know that can't be bad.
Yes, she loves you
And you know you should be glad. Ooh!

She loves you, yeah, yeah, yeah
She loves you, yeah, yeah, yeah
And with a love like that
You know you should be glad.
With a love like that
You know you should be glad.
With a love like that,
You know you sho-o-ould
Be Glad!
Yeah, yeah, yeah.
Yeah, yeah, yeah Ye-ah.



· · · · ·
e|------- ------- ------- -------|------- ------- ------- -------|
B|-------------------------------|-------------------------------|
G|-------------------------------|-------------------------------|
D|-------------------------------|-------------------------------|
A|-------------------------------|-------------------------------|
E|-------------------------------|-------------------------------|
She

Em
e|0------ 0------ 0------ 0---0--|0------ 0------ ---0--- 0---0--|
B|0-------0-------0-------0---0--|0-------0----------0----0---0--|
G|0-------0-------0-------0---0--|0-------0----------0----0---0--|
D|2-------2-------2-------2---2--|2-------2----------2----2---2--|
A|2-------2-------2-------2---2--|2-------2----------2----2---2--|
E|0-------0-------0-------0---0--|0-------0----------0----0---0--|
loves you yeah yeah yeah She

A C
e|0------ 0------ 0------ 0------|0------ 0---0-- ---0--- 0---0--|
B|2-------2-------2-------2------|2-------2---2------2----2---1--|
G|2-------2-------2-------2------|2-------2---2------2----2---0--|
D|2-------2-------2-------2------|2-------2---2------2----2---2--|
A|0-------0-------0-------0------|0-------0---0------0----0---3--|
E|-------------------------------|----------------------------3--|
loves you yeah yeah yeah She


C
e|0------ 0------ 0------ 0------|0------ 0---0-- ----0-- 0------|
B|1-------1-------1-------1------|1-------1---1-------1---1------|
G|0-------0-------0-------0------|0-------0---0-------0---0------|
D|2-------2-------2-------2------|2-------2---2-------2---2------|
A|3-------3-------3-------3------|3-------3---3-------3---3------|
E|3-------3-------3-------3------|3-------3---3-------3---3------|
loves you yeah yeah yeah

G
e|3------ 3------ 3------ 3------|3------ 3---3-- ----3-- 3------|
B|3-------3-------3-------3------|3-------3---3-------3---3------|
G|0-------0-------0-------0------|0-------0---0-------0---0------|
D|0-------0-------0-------0------|0-------0---0-------0---0------|
A|2-------2-------2-------2------|2-------2---2-------2---2------|
E|3-------3-------3-------3------|3-------3---3-------3---3------|
yeah You
e|------- ------- ------- -------|------- ------- ------- -------|
B|-------------------------------|-------------------------------|
G|----------------------------3--|--------3-5/6\5-----3-------3--|
D|----------------------------3--|----5---3-5/6\5-----3---5---3--|
A|-------------------------------|----5-------------------5------|
E|-------------------------------|-------------------------------|




G Em7
e|3------ 3------ 3------ 3------|0------ 0---0-- ----0-- 0------|
B|3-------3-------3-------3------|3-------3---3-------3---3------|
G|0-------0-------0-------0------|0-------0---0-------0---0------|
D|0-------0-------0-------0------|2-------2---2-------2---2------|
A|2-------2-------2-------2------|2-------2---2-------2---2------|
E|3-------3-------3-------3------|0-------0---0-------0---0------|
think you lost your love when I

Bm D
e|2------ 2---2-- ----2-- 2------|2------ 2---2-- ----2-- 2------|
B|3-------3---3-------3---3------|3-------3---3-------3---3------|
G|4-------4---4-------4---4------|2-------2---2-------2---2------|
D|4-------4---4-------4---4------|0-------0---0-------0---0------|
A|2-------2---2-------2---2------|-------------------------------|
E|-------------------------------|-------------------------------|
saw her yes..........terday It's

G Em7
e|3------ 3---3-- 3---3-- 3------|0------ 0---0-- ----0-- 0------|
B|3-------3---3---3---3---3------|3-------3---3-------3---3------|
G|0-------0---0---0---0---0------|0-------0---0-------0---0------|
D|0-------0---0---0---0---0------|2-------2---2-------2---2------|
A|2-------2---2---2---2---2------|2-------2---2-------2---2------|
E|3-------3---3---3---3---3------|0-------0---0-------0---0------|
you she's thinking of and she

Bm D
e|2------ 2---2-- ----2-- 2------|2------ 2---2-- ----2-- 2---3--|
B|3-------3---3-------3---3------|3-------3---3-------3---3---3--|
G|4-------4---4-------4---4------|2-------2---2-------2---2---0--|
D|4-------4---4-------4---4------|0-------0---0-------0---0---0--|
A|2-------2---2-------2---2------|-------------------------------|
E|-------------------------------|-------------------------------|
told me what to say she says she

G
e|3------ ----3-- ----3-- 3------|3------ 3---3-- 3---3-- 3------|
B|3-----------3-------3---3------|3-------3---3---3---3---3------|
G|0-----------0-------0---0------|0-------0---0---0---0---0------|
D|0-----------0-------0---0------|0-------0---0---0---0---0------|
A|2-----------2-------2---2------|2-------2---2---2---2---2------|
E|3-----------3-------3---3------|3-------3---3---3---3---3------|
loves you and you know that can't be

Em
e|0------ 0---0-- 0---0-- 0---0--|0------ 0---0-- ----0-- 0------|
B|0-------0---0---0---0---0---0--|0-------0---0-------0---0------|
G|0-------0---0---0---0---0---0--|0-------0---0-------0---0------|
D|2-------2---2---2---2---2---2--|2-------2---2-------2---2------|
A|2-------2---2---2---2---2---2--|2-------2---2-------2---2------|
E|0-------0---0---0---0---0---0--|0-------0---0-------0---0------|
bad Yes she
e|------- ------- 3------ -------|2------ ------- 0------ -------|
B|----------------0--------------|0---------------0--------------|
G|----------------0--------------|0---------------0--------------|
D|----------------5--------------|4---------------3--------------|
A|-------------------------------|-------------------------------|
E|-------------------------------|-------------------------------|

Cm
e|3------ 3---3-- ----3-- 3---3--|3------ 3---3-- ----3-- 3------|
B|4-------4---4-------4---4---4--|4-------4---4-------4---4------|
G|5-------5---5-------5---5---5--|5-------5---5-------5---5------|
D|5-------5---5-------5---5---5--|5-------5---5-------5---5------|
A|3-------3---3-------3---3---3--|3-------3---3-------3---3------|
E|-------------------------------|-------------------------------|
loves you and you know you should be glad


D
e|2------ 2---2-- ----2-- 2---2--|2------ 2---2-- ----2-- 2---3--|
B|3-------3---3-------3---3---3--|3-------3---3-------3---3---3--|
G|2-------2---2-------2---2---2--|2-------2---2-------2---2---0--|
D|0-------0---0-------0---0---0--|0-------0---0-------0---0---0--|
A|-------------------------------|-------------------------------|
E|-------------------------------|-------------------------------|
Ooooh She
e|------- ------- ------- -------|------- ------- ------- -------|
B|-------------------------------|-------------------------------|
G|----------------------------3--|--------3-5/6\5-----3-------3--|
D|----------------------------3--|----5---3-5/6\5-----3---5---3--|
A|-------------------------------|----5-------------------5------|
E|-------------------------------|-------------------------------|


G Em7
e|3------ 3---3-- ----3-- 3------|0------ 0---0-- ----0-- 0---0--|
B|3-------3---3-------3---3------|3-------3---3-------3---3---3--|
G|0-------0---0-------0---0------|0-------0---0-------0---0---0--|
D|0-------0---0-------0---0------|2-------2---2-------2---2---2--|
A|2-------2---2-------2---2------|2-------2---2-------2---2---2--|
E|3-------3---3-------3---3------|0-------0---0-------0---0---0--|
said you hurt her so she


Bm D
e|2------ 2---2-- ----2-- 2------|2------ 2---2-- 2---2-- 2---3--|
B|3-------3---3-------3---3------|3-------3---3---3---3---3---3--|
G|4-------4---4-------4---4------|2-------2---2---2---2---2---0--|
D|4-------4---4-------4---4------|0-------0---0---0---0---0---0--|
A|2-------2---2-------2---2------|-------------------------------|
E|-------------------------------|-------------------------------|
almost lost her mind She


G Em7
e|3------ 3---3-- 3---3-- 3------|0------ 0---0-- ----0-- 0------|
B|3-------3---3---3---3---3------|3-------3---3-------3---3------|
G|0-------0---0---0---0---0------|0-------0---0-------0---0------|
D|0-------0---0---0---0---0------|2-------2---2-------2---2------|
A|2-------2---2---2---2---2------|2-------2---2-------2---2------|
E|3-------3---3---3---3---3------|0-------0---0-------0---0------|
said to let you know you're


Bm D
e|2------ 2---2-- ----2-- 2---2--|2------ 2---2-- 2---2-- 2---3--|
B|3-------3---3-------3---3---3--|3-------3---3---3---3---3---3--|
G|4-------4---4-------4---4---4--|2-------2---2---2---2---2---0--|
D|4-------4---4-------4---4---4--|0-------0---0---0---0---0---0--|
A|2-------2---2-------2---2---2--|-------------------------------|
E|-------------------------------|-------------------------------|
not the hurting kind She says she

G
e|3------ 3---3-- 3---3-- 3---3--|3------ 3---3-- 3---3-- 3------|
B|3-------3---3---3---3---3---3--|3-------3---3---3---3---3------|
G|0-------0---0---0---0---0---0--|0-------0---0---0---0---0------|
D|0-------0---0---0---0---0---0--|0-------0---0---0---0---0------|
A|2-------2---2---2---2---2---2--|2-------2---2---2---2---2------|
E|3-------3---3---3---3---3---3--|3-------3---3---3---3---3------|
loves you and you know that can't be

Em
e|0------ 0---0-- 0---0-- 0---0--|0------ 0---0-- ----0-- 0------|
B|0-------0---0---0---0---0---0--|0-------0---0-------0---0------|
G|0-------0---0---0---0---0---0--|0-------0---0-------0---0------|
D|2-------2---2---2---2---2---2--|2-------2---2-------2---2------|
A|2-------2---2---2---2---2---2--|2-------2---2-------2---2------|
E|0-------0---0---0---0---0---0--|0-------0---0-------0---0------|
bad Yes she
e|------- ------- 3------ -------|2------ ------- 0------ -------|
B|----------------0--------------|0---------------0--------------|
G|----------------0--------------|0---------------0--------------|
D|----------------5--------------|4---------------3--------------|
A|-------------------------------|-------------------------------|
E|-------------------------------|-------------------------------|

Cm
e|3------ 3---3-- ----3-- 3---3--|3------ 3---3-- ----3-- 3------|
B|4-------4---4-------4---4---4--|4-------4---4-------4---4------|
G|5-------5---5-------5---5---5--|5-------5---5-------5---5------|
D|5-------5---5-------5---5---5--|5-------5---5-------5---5------|
A|3-------3---3-------3---3---3--|3-------3---3-------3---3------|
E|-------------------------------|-------------------------------|
loves you and you know you should be glad


D
e|2------ 2---2-- 2---2-- 2------|2------ 2---2-- 2---2-- 2---2--|
B|3-------3---3---3---3---3------|3-------3---3---3---3---3---3--|
G|2-------2---2---2---2---2------|2-------2---2---2---2---2---2--|
D|0-------0---0---0---0---0------|0-------0---0---0---0---0---0--|
A|-------------------------------|-------------------------------|
E|-------------------------------|-------------------------------|
Ooooh She


Em
e|0------ 0------ 0------ 0---0--|0------ 0------ ---0--- 0---0--|
B|0-------0-------0-------0---0--|0-------0----------0----0---0--|
G|0-------0-------0-------0---0--|0-------0----------0----0---0--|
D|2-------2-------2-------2---2--|2-------2----------2----2---2--|
A|2-------2-------2-------2---2--|2-------2----------2----2---2--|
E|0-------0-------0-------0---0--|0-------0----------0----0---0--|
loves you yeah yeah yeah She


A
e|0------ 0------ 0------ 0---0--|0------ 0---0-- ---0--- 0------|
B|2-------2-------2-------2---2--|2-------2---2------2----2------|
G|2-------2-------2-------2---2--|2-------2---2------2----2------|
D|2-------2-------2-------2---2--|2-------2---2------2----2------|
A|0-------0-------0-------0---0--|0-------0---0------0----0------|
E|-------------------------------|-------------------------------|
loves you yeah yeah yeah with a


Cm D
e|3------ 3------ 3------ -------|2------ 2---2-- ----2-- 2------|
B|4-------4-------4--------------|1-------1---1-------1---1------|
G|5-------5-------5--------------|2-------2---2-------2---2------|
D|5-------5-------5--------------|0-------0---0-------0---0------|
A|3-------3-------3--------------|-------------------------------|
E|-------------------------------|-------------------------------|
love like that you know you should be glad

G
e|3------ 3---3-- ----3-- 3------|3------ 3---3-- ----3-- 3---3--|
B|3-------3---3-------3---3------|3-------3---3-------3---3---3--|
G|0-------0---0-------0---0------|0-------0---0-------0---0---0--|
D|0-------0---0-------0---0------|0-------0---0-------0---0---0--|
A|2-------2---2-------2---2------|2-------2---2-------2---2---2--|
E|3-------3---3-------3---3------|3-------3---3-------3---3---3--|
You
e|------- ------- ------- -------|------- ------- ------- -------|
B|-------------------------------|-------------------------------|
G|----------------------------3--|--------3-5/6\5-----3-------3--|
D|----------------------------3--|----5---3-5/6\5-----3---5---3--|
A|-------------------------------|----5-------------------5------|
E|-------------------------------|-------------------------------|





G Em7
e|3------ 3---3-- ------- 3------|0------ 0---0-- ----0-- 0------|
B|3-------3---3-----------3------|3-------3---3-------3---3------|
G|0-------0---0-----------0------|0-------0---0-------0---0------|
D|0-------0---0-----------0------|2-------2---2-------2---2------|
A|2-------2---2-----------2------|2-------2---2-------2---2------|
E|3-------3---3-----------3------|0-------0---0-------0---0------|
know it's up to you I


Bm D
e|2------ 2---2-- ----2-- 2---2--|2------ 2---2-- ----2-- ----3--|
B|3-------3---3-------3---3---3--|3-------3---3-------3-------3--|
G|4-------4---4-------4---4---4--|2-------2---2-------2-------0--|
D|4-------4---4-------4---4---4--|0-------0---0-------0-------0--|
A|2-------2---2-------2---2---2--|-------------------------------|
E|-------------------------------|-------------------------------|
think it's on.........ly fair


G Em7
e|3------ 3------ 3------ 3---3--|0------ 0---0-- ----0-- 0------|
B|3-------3-------3-------3---3--|3-------3---3-------3---3------|
G|0-------0-------0-------0---0--|0-------0---0-------0---0------|
D|0-------0-------0-------0---0--|2-------2---2-------2---2------|
A|2-------2-------2-------2---2--|2-------2---2-------2---2------|
E|3-------3-------3-------3---3--|0-------0---0-------0---0------|
Pride can hurt you too a..


Bm D
e|2------ 2---2-- ----2-- 2------|2---2-2 2---2-- 2------ 2------|
B|3-------3---3-------3---3------|3---3-3-3---3---3-------3------|
G|4-------4---4-------4---4------|2---2-2-2---2---2-------2------|
D|4-------4---4-------4---4------|0---0-0-0---0---0-------0------|
A|2-------2---2-------2---2------|-------------------------------|
E|-------------------------------|-------------------------------|
po......lo......gize to her because she

G
e|3------ ----3-- ----3-- 3------|3------ 3---3-- 3---3-- 3------|
B|3-----------3-------3---3------|3-------3---3---3---3---3------|
G|0-----------0-------0---0------|0-------0---0---0---0---0------|
D|0-----------0-------0---0------|0-------0---0---0---0---0------|
A|2-----------2-------2---2------|2-------2---2---2---2---2------|
E|3-----------3-------3---3------|3-------3---3---3---3---3------|
loves you and you know that can't be

Em
e|0------ 0---0-- 0---0-- 0---0--|0------ 0---0-- ----0-- 0------|
B|0-------0---0---0---0---0---0--|0-------0---0-------0---0------|
G|0-------0---0---0---0---0---0--|0-------0---0-------0---0------|
D|2-------2---2---2---2---2---2--|2-------2---2-------2---2------|
A|2-------2---2---2---2---2---2--|2-------2---2-------2---2------|
E|0-------0---0---0---0---0---0--|0-------0---0-------0---0------|
bad Yes she
e|------- ------- 3------ -------|2------ ------- 0------ -------|
B|----------------0--------------|0---------------0--------------|
G|----------------0--------------|0---------------0--------------|
D|----------------5--------------|4---------------3--------------|
A|-------------------------------|-------------------------------|
E|-------------------------------|-------------------------------|

Cm
e|3------ 3---3-- ----3-- 3---3--|3------ 3---3-- ----3-- 3---3--|
B|4-------4---4-------4---4---4--|4-------4---4-------4---4---4--|
G|5-------5---5-------5---5---5--|5-------5---5-------5---5---5--|
D|5-------5---5-------5---5---5--|5-------5---5-------5---5---5--|
A|3-------3---3-------3---3---3--|3-------3---3-------3---3---3--|
E|-------------------------------|-------------------------------|
loves you and you know you should be glad

D
e|2------ 2---2-- ----2-- 2---2--|2---2-- 2---2-- 2---2-- 2------|
B|3-------3---3-------3---3---3--|3---3---3---3---3---3---3------|
G|2-------2---2-------2---2---2--|2---2---2---2---2---2---2------|
D|0-------0---0-------0---0---0--|0---0---0---0---0---0---0------|
A|-------------------------------|-------------------------------|
E|-------------------------------|-------------------------------|
Oooooh She


Em
e|0------ 0------ 0------ 0---0--|0------ 0------ ---0--- 0---0--|
B|0-------0-------0-------0---0--|0-------0----------0----0---0--|
G|0-------0-------0-------0---0--|0-------0----------0----0---0--|
D|2-------2-------2-------2---2--|2-------2----------2----2---2--|
A|2-------2-------2-------2---2--|2-------2----------2----2---2--|
E|0-------0-------0-------0---0--|0-------0----------0----0---0--|
loves you yeah yeah yeah She


A
e|0------ 0------ 0------ 0------|0------ 0---0-- ---0--- 0------|
B|2-------2-------2-------2------|2-------2---2------2----2------|
G|2-------2-------2-------2------|2-------2---2------2----2------|
D|2-------2-------2-------2------|2-------2---2------2----2------|
A|0-------0-------0-------0------|0-------0---0------0----0------|
E|-------------------------------|-------------------------------|
loves you yeah yeah yeah and with a

Cm D
e|3------ 3------ 3------ -------|2------ 2---2-- ----2-- 2------|
B|4-------4-------4--------------|3-------3---3-------3---3------|
G|5-------5-------5--------------|2-------2---2-------2---2------|
D|5-------5-------5--------------|0-------0---0-------0---0------|
A|3-------3-------3--------------|-------------------------------|
E|-------------------------------|-------------------------------|
love like that you know you should be glad

G Em
e|3------ 3---3-- ----3-- 3------|0------ 0---0-- 0---0-- 0------|
B|3-------3---3-------3---3------|0-------0---0---0---0---0------|
G|0-------0---0-------0---0------|0-------0---0---0---0---0------|
D|0-------0---0-------0---0------|2-------2---2---2---2---2------|
A|2-------2---2-------2---2------|2-------2---2---2---2---2------|
E|3-------3---3-------3---3------|0-------0---0---0---0---0------|
with a
e|------- ------- ------- -------|------- ------- ------- -------|
B|-------------------------------|-------------------------------|
G|------------------------0------|-------------------------------|
D|--------------------0----------|-------------------------------|
A|-------------------------------|-------------------------------|
E|----------------3-----3-----2--|0------------------------------|
Cm D
e|3------ 3------ 3------ -------|2------ 2------ ------- 2------|
B|4-------4-------4--------------|3-------3---------------3------|
G|5-------5-------5--------------|2-------2---------------2------|
D|5-------5-------5--------------|0-------0---------------0------|
A|3-------3-------3--------------|-------------------------------|
E|-------------------------------|-------------------------------|
love like that you know you should be glad

G Em
e|3------ 3------ 3------ 3------|0------ 0------ 0------ 0------|
B|3-------3-------3-------3------|0-------0-------0-------0------|
G|0-------0-------0-------0------|0-------0-------0-------0------|
D|0-------0-------0-------0------|2-------2-------2-------2------|
A|2-------2-------2-------2------|2-------2-------2-------2------|
E|3-------3-------3-------3------|0-------0-------0-------0------|
with a
e|------- ------- ------- -------|------- ------- ------- -------|
B|-------------------------------|-------------------------------|
G|------------------------0------|-------------------------------|
D|--------------------0----------|-------------------------------|
A|-------------------------------|-------------------------------|
E|----------------3-----3-----2--|0------------------------------|

Cm D(.
e|3------ 3------ 3------ -------|2------ ------- ------- -------|
B|4-------4-------4--------------|3------------------------------|
G|5-------5-------5--------------|2------------------------------|
D|5-------5-------5--------------|0------------------------------|
A|3-------3-------3--------------|-------------------------------|
E|-------------------------------|-------------------------------|
love like that you know you should be


G
e|3------ 3------ 3------ 3------|3------ 3---3-- ----3-- 3------|
B|3-------3-------3-------3------|3-------3---3-------3---3------|
G|0-------0-------0-------0------|0-------0---0-------0---0------|
D|0-------0-------0-------0------|0-------0---0-------0---0------|
A|2-------2-------2-------2------|2-------2---2-------2---2------|
E|3-------3-------3-------3------|3-------3---3-------3---3------|
glad yeah yeah yeah

e|------- ------- 3------ -------|2------ ------- 0------ -------|
B|----------------0--------------|0---------------0--------------|
G|----------------0--------------|0---------------0--------------|
D|----------------5--------------|4---------------3--------------|
A|-------------------------------|-------------------------------|
E|-------------------------------|-------------------------------|


Em
e|0------ 0---0-- 0---0-- 0---0--|0------ 0---0-- ----0-- 0------|
B|0-------0---0---0---0---0---0--|0-------0---0-------0---0------|
G|0-------0---0---0---0---0---0--|0-------0---0-------0---0------|
D|2-------2---2---2---2---2---2--|2-------2---2-------2---2------|
A|2-------2---2---2---2---2---2--|2-------2---2-------2---2------|
E|0-------0---0---0---0---0---0--|0-------0---0-------0---0------|
yeah yeah yeah


C
e|0------ 0------ 0------ 0------|0------ 0---0-- ----0-- 0------|
B|1-------1-------1-------1------|1-------1---1-------1---1------|
G|0-------0-------0-------0------|0-------0---0-------0---0------|
D|2-------2-------2-------2------|2-------2---2-------2---2------|
A|3-------3-------3-------3------|3-------3---3-------3---3------|
E|3-------3-------3-------3------|3-------3---3-------3---3------|
yeah yeah yeah


G6¨¨¨¨¨¨¨¨¨¨¨¨¨¨¨¨¨¨¨¨¨¨¨¨¨¨¨¨¨
e|0------ ------- ------- -------|------- ------- ------- -------|
B|3------------------------------|-------------------------------|
G|0------------------------------|-------------------------------|
D|0------------------------------|-------------------------------|
A|2------------------------------|-------------------------------|
E|3------------------------------|-------------------------------|
yeah






B Bend
R Release
/ slide up
\ slide down
H hammer-on
P pull-off
~ vibrato
+ harmonic
x Mute note
. - play note like a dot in standard notation
^ - ties two notes together
(. Pause

pjvill

Submitted by pjvill at Thu 15 Dec, 2005 9:56 am

Author: ?
Composer: ?
Publisher: ?
Language: English

Reactions

CommonCrawl [Bot]

Follow Muzikum