The Beatles

The Beatles
She Came In Through The Bathroom Window (Guitar tab)

-------------------------------------------------------------
THE BEATLES - SHE CAME IN THROUGH THE BATHROOM WINDOW
(Lennon/McCartney) From ABBEY ROAD album.
Released on 26th September 1969.

-------------------------------------------------------------

Tabbed by:PJVillanueva



Coming from POLYTHENE PAM the tempo for this one is double slow,
but to get a much clearer tab and give enough room for the lyrics
I have used the same template so that you must know that two bars
really make one (4/4 time - a measure = four beats per line)


1 2 3 4
e|--------------- --------------- --------------- ---------------|
B|---------------------------------------------------------------|
G|---------------------------------------------------------------|
D|---------------------------------------------------------------|
A|---------------------------------------------------------------|
E|---------------------------------------------------------------|



She came in through the bathroom window
Protected by a silver spoon
But now she sucks her thumb and wanders
By the banks of her own lagoon

Didn't anybody tell her?
Didn't anybody see?
Sundays on the phone to Monday,
Tuesdays on the phone to me

She said she'd always been a dancer
She worked at fifteen clubs a day
And though she thought I knew the answer
Well I knew what I could not say.

And so I quit the police department
And got myself a steady job
And though she tried her best to help me
She could steal but she could not rob

Didn't anybody tell her?
Didn't anybody see?
Sunday's on the phone to Monday,
Tuesday's on the phone to me
Oh yeah.




....

1 2 3 4

x x x X X
A
e|0------ ------- ------- -------|------- ------- ------- -------|
B|2------------------------------|-------------------------------|
G|2------------------------------|-------------------------------|
D|2------------------------------|-------------------------------|
A|0------------------------------|-------------------------------|
E|-------------------------------|-------------------------------|
She came in through the bathroom window
Aaaaaaaaaaaaaaaaaaaaaaaaaaaaaaa
e|------- ------- ------- -------|------- ------- ------- -------|
B|-------------------------------|-------------------------------|
G|-------------------------------|-------------------------------|
D|-------------------------------|-------------------------------|
A|0------------------------------|-------------------------------|
E|-------------------------------|-------------------------------|



X
D
e|------- ------- ------- -------|2---2-- 2---2-- ----2-- 2---2--|
B|-------------------------------|3---3---3---3-------3---3---3--|
G|-------------------------------|2---2---2---2-------2---2---2--|
D|-------------------------------|0---0---0---0-------0---0---0--|
A|-------------------------------|-------------------------------|
E|-------------------------------|-------------------------------|
oooooooooooooooooooooooooooooooooooooooooooooooooooohhh
e|------- ------- ----10- -------10------ ------- -------10------|
B|-------------------------------|7-----------7-------8---7------|
G|------------------------7-H-9--|7---7-------7-------7---7------|
D|-------------------------------|-------------------------------|
A|-------------------------------|-------------------------------|
E|-------------------------------|-------------------------------|




A
e|0------ 0------ 0------ ----0--|----0-- ----0-- 0------ 0---0--|
B|2-------2-------2-----------2--|----2-------2---2-------2---2--|
G|2-------2-------2-----------2--|----2-------2---2-------2---2--|
D|2-------2-------2-----------2--|----2-------2---2-------2---2--|
A|0-------0-------0-----------0--|----0-------0---0-------0---0--|
E|-------------------------------|-------------------------------|
Protected by a silver spoon
Aaaaaaaaaaaaaaaaaaaaaaaaaaaaaaaaaaaaaaaaaaaaaaaaaaaaaaaaaaaaaaa
e|9------ ------- ------- -------|------- ------- ------- -------|
B10------------------------------|-------------------------------|
G|9------------------------------|-------------------------------|
D|-------------------------------|-------------------------------|
A|-------------------------------|-------------------------------|
E|-------------------------------|-------------------------------|



x x x X X X X
D
e|2------ 2------ 2------ 2---2--|----2-- ----2-- ----2-- 2---2--|
B|3-------3-------3-------3---3--|----3-------3-------3---3---3--|
G|2-------2-------2-------2---2--|----2-------2-------2---2---2--|
D|0-------0-------0-------0---0--|----0-------0-------0---0---0--|
A|-------------------------------|-------------------------------|
E|-------------------------------|-------------------------------|
oooooooooooooooooooooooooooooooooooooooooooooooohhh
e|------- ------- ----10- -------10------ ---10-- -------10------|
B|-------------------------------|7---7-H-8-P-7-----------7------|
G|------------------------7------|----7-------7-----------7------|
D|------------------------7-H-9--|----7-H-9-P-7---7-/-9----------|
A|-------------------------------|-------------------------------|
E|-------------------------------|-------------------------------|




A
e|0------ 0------ 0------ -------|0------ 0------ 0------ 0---0--|
B|2-------2-------2--------------|2-------2-------2-------2---2--|
G|2-------2-------2--------------|2-------2-------2-------2---2--|
D|2-------2-------2--------------|2-------2-------2-------2---2--|
A|0-------0-------0--------------|0-------0-------0-------0---0--|
E|-------------------------------|-------------------------------|
But now she sucks her thumb and wanders
Aaaaaaaaaaaaaaaaaaaaaaaaaaaaaaaaaaaaaaaaaaaaaaaaaaaaaaaaaaaaaaa
e|9------ ------- ------- -------|------- ------- ------- -------|
B10------------------------------|-------------------------------|
G|9------------------------------|-------------------------------|
D|-------------------------------|-------------------------------|
A|-------------------------------|-------------------------------|
E|-------------------------------|-------------------------------|



x x x X X X X
D
e|2---2-- 2------ 2------ 2---2--|----2-- ----2-- 2---2-- 2---2--|
B|3---3---3-------3-------3---3--|----3-------3---3---3---3---3--|
G|2---2---2-------2-------2---2--|----2-------2---2---2---2---2--|
D|0---0---0-------0-------0---0--|----0-------0---0---0---0---0--|
A|-------------------------------|-------------------------------|
E|-------------------------------|-------------------------------|
By the banks
oooooooooooooooooooooooooooooooooooooooooooooooohhh
e|------- ------- ----10- -------10------ ---10-- -------10------|
B|------------------------7-H-8--|7---7-H-8-P-7-----------7------|
G|------------------------7------|----7-------------------7------|
D|-------------------------------|----7-H-9-P-7------------------|
A|-------------------------------|-------------------------------|
E|-------------------------------|-------------------------------|





e|2------ 2------ 2------ ----2--|----2-- ----2-- 2------ 2---2--|
B|3-------3-------3-----------3--|----3-------3---3-------3---3--|
G|2-------2-------2-----------2--|----2-------2---2-------2---2--|
D|0-------0-------0-----------0--|----0-------0---0-------0---0--|
A|-------------------------------|-------------------------------|
E|-------------------------------|-------------------------------|
of her own lagoon
Ooooooooooooooooooooooooooooooooooooooooooooooooooooooooooooooo
e/14----- ------- ------- 12-----|10----- ----\-- 5------ -------|
B|-------------------------------|-------------------------------|
G/14----------------------12-----|11----------\---7--------------|
D|-------------------------------|-------------------------------|
A|-------------------------------|-------------------------------|
E|-------------------------------|-------------------------------|



x x x X X X X
A
e|0------ ------- ------- -------|------- ------- ------- -------|
B|2------------------------------|-------------------------------|
G|2------------------------------|-------------------------------|
D|2------------------------------|-------------------------------|
A|0------------------------------|-------------------------------|
E|-------------------------------|-------------------------------|
Didn't anybody tell
ooooooooohhh
e|9------ ------- ------- -------|------- ------- ------- -------|
B|-------------------------------|-------------------------------|
G|9------------------------------|-------------------------------|
D|-------------------------------|-------------------------------|
A|-------------------------------|-------------------------------|
E|-------------------------------|-------------------------------|




Dm A
e|1------ 1------ 1------ ----1--|----1-- 1------ 1------ ----0--|
B|3-------3-------3-----------3--|----3---3-------3-----------2--|
G|2-------2-------2-----------2--|----2---2-------2-----------2--|
D|0-------0-------0-----------0--|----0---0-------0-----------2--|
A|-------------------------------|----------------------------0--|
E|-------------------------------|-------------------------------|
her?
e|------- ------- ------- -------|------- ------- ------- -------|
B|-------------------------------|-------------------------------|
G|------------------------7---9--|9B10R9--7-------7-------9------|
D|--------------------7----------|-------------------------------|
A|-------------------------------|-------------------------------|
E|-------------------------------|-------------------------------|





e|0------ 0------ 0------ 0---0--|----0-- ----0-- 0------ 0---0--|
B|2-------2-------2-------2---2--|----2-------2---2-------2---2--|
G|2-------2-------2-------2---2--|----2-------2---2-------2---2--|
D|2-------2-------2-------2---2--|----2-------2---2-------2---2--|
A|0-------0-------0-------0---0--|----0-------0---0-------0---0--|
E|-------------------------------|-------------------------------|
Didn't anybody see?
e|------- ------- ------- -------|------- ------- ------- -------|
B|-------------------------------|-------------------------------|
G|6--~---------------------------|-------------------------------|
D|-------------------------------|-------------------------------|
A|-------------------------------|-------------------------------|
E|-------------------------------|-------------------------------|



x x x X X X X
Dm G
e|1------ 1------ 1------ ----1--|----1-- ----1-- 1---1-- 1---3--|
B|3-------3-------3-----------3--|----3-------3---3---3---3---3--|
G|2-------2-------2-----------2--|----2-------2---2---2---2---0--|
D|0-------0-------0-----------0--|----0-------0---0---0---0---0--|
A|-------------------------------|----------------------------2--|
E|-------------------------------|----------------------------3--|

e|------- ------- ------- -------|------- ------- ------- -------|
B|-------------------------------|-------------------------------|
G|------------------------7------|9B10----9-------7H9P7----------|
D|--------------------7----------|-------------------------------|
A|-------------------------------|-------------------------------|
E|-------------------------------|-------------------------------|





e|3------ 3------ 3------ 3---3--|----3-- ------- 3------ 3------|
B|3-------3-------3-------3---3--|----3-----------3-------3------|
G|0-------0-------0-------0---0--|----0-----------0-------0------|
D|0-------0-------0-------0---0--|----0-----------0-------0------|
A|2-------2-------2-------2---2--|----2-----------2-------2------|
E|3-------3-------3-------3---3--|----3-----------3-------3------|
Sundays on the phone to Monday,


xxx x X X
C G
e|0------ 0------ 0------ 3------|------- 3------ 3------ 3------|
B|1-------1-------1-------3------|--------3-------3-------3------|
G|0-------0-------0-------0------|--------0-------0-------0------|
D|2-------2-------2-------0------|--------0-------0-------0------|
A|3-------3-------3-------2------|--------2-------2-------2------|
E|3-------3-------3-------3------|--------3-------3-------3------|

e|------- 8------ 10-B-12 10-P-8-|------- ------- ------- -------|
B/10-----------------------------|---10-P-8----------------------|
G|-------------------------------|------------9-P-7---5-H-7------|
D|-------------------------------|-------------------------------|
A|-------------------------------|-------------------------------|
E|-------------------------------|-------------------------------|





e|3------ 3------ 3------ 3---3--|----3-- 3------ 3------ 3------|
B|3-------3-------3-------3---3--|----3---3-------3-------3------|
G|0-------0-------0-------0---0--|----0---0-------0-------0------|
D|0-------0-------0-------0---0--|----0---0-------0-------0------|
A|2-------2-------2-------2---2--|----2---2-------2-------2------|
E|3-------3-------3-------3---3--|----3---3-------3-------3------|
Tuesdays on the phone to me
e|------- ------- ------- -------|------- ------- ------- -------|
B|-------------------------------|-------------------------------|
G|-------------------------------|-------------------------------|
D|5------------------------------|-------------------------------|
A|-------------------------------|-------------------------------|
E|-------------------------------|-------------------------------|



(.
C
e|0------ 0---0-- 0---0-- 0------|
B|1-------1---1---1---1---1------|
G|0-------0---0---0---0---0------|
D|2-------2---2---2---2---2------|
A|3-------3---3---3---3---3------|
E|3-------3---3---3---3---3------|

e|------- ------- ------- 9------|
B|----------------8-------8------|
G|-------/-9--------------9------|
D|-------------------------------|
A|-------------------------------|
E|-------------------------------|



xxX X X x x
A
e|0------ ------- ------- -------|------- ------- ------- -------|
B|2------------------------------|-------------------------------|
G|2------------------------------|-------------------------------|
D|2------------------------------|-------------------------------|
A|0------------------------------|-------------------------------|
E|-------------------------------|-------------------------------|
She said she'd always been a dancer


x
D
e|------- ------- 2------ 2---2--|2---2-- 2---2-- 2---2-- 2---2--|
B|----------------3-------3---3--|3---3---3---3---3---3---3---3--|
G|----------------2-------2---2--|2---2---2---2---2---2---2---2--|
D|----------------0-------0---0--|0---0---0---0---0---0---0---0--|
A|-------------------------------|-------------------------------|
E|-------------------------------|-------------------------------|

e|------- ------- ----10- -------|------- ------- -------10------|
B|------------------------7-H-8--|7-----------7-----------7------|
G|------------------------7------|7---------------7-------7------|
D|-------------------------------|----7-H-9-----------9----------|
A|-------------------------------|-------------------------------|
E|-------------------------------|-------------------------------|



x
A
e|0------ ------- ------- -------|------- ------- ------- -------|
B|2------------------------------|-------------------------------|
G|2------------------------------|-------------------------------|
D|2------------------------------|-------------------------------|
A|0------------------------------|-------------------------------|
E|-------------------------------|-------------------------------|
She worked at fifteen clubs a day
e|9------ ------- ------- -------|------- ------- ------- -------|
B10------------------------------|-------------------------------|
G|9------------------------------|-------------------------------|
D|-------------------------------|-------------------------------|
A|-------------------------------|-------------------------------|
E|-------------------------------|-------------------------------|



x
D
e|2---2-- 2------ 2------ 2---2--|2---2-- 2---2-- 2---2-- 2---2--|
B|3---3---3-------3-------3---3--|3---3---3---3---3---3---3---3--|
G|2---2---2-------2-------2---2--|2---2---2---2---2---2---2---2--|
D|0---0---0-------0-------0---0--|0---0---0---0---0---0---0---0--|
A|-------------------------------|-------------------------------|
E|-------------------------------|-------------------------------|

e|------- ------- ----10- -------|10----- ----10- -------10------|
B|------------------------7-H-8--|----7-H-8-------7-------7------|
G|------------------------7------|----7-----------7---7----------|
D|-------------------------------|-------------------------------|
A|-------------------------------|-------------------------------|
E|-------------------------------|-------------------------------|




A
e|0------ 0------ ------- 0---0--|----0-- ----0-- 0------ 0---0--|
B|2-------2---------------2---2--|----2-------2---2-------2---2--|
G|2-------2---------------2---2--|----2-------2---2-------2---2--|
D|2-------2---------------2---2--|----2-------2---2-------2---2--|
A|0-------0---------------0---0--|----0-------0---0-------0---0--|
E|-------------------------------|-------------------------------|
And though she thought I knew the answer
e|9------ ------- ------- -------|------- ------- ------- -------|
B10------------------------------|-------------------------------|
G|9------------------------------|-------------------------------|
D|-------------------------------|-------------------------------|
A|-------------------------------|-------------------------------|
E|-------------------------------|-------------------------------|



x
D
e|2------ 2------ 2------ 2---2--|2---2-- 2---2-- 2---2-- 2---2--|
B|3-------3-------3-------3---3--|3---3---3---3---3---3---3---3--|
G|2-------2-------2-------2---2--|2---2---2---2---2---2---2---2--|
D|0-------0-------0-------0---0--|0---0---0---0---0---0---0---0--|
A|-------------------------------|-------------------------------|
E|-------------------------------|-------------------------------|
Well I knew
e|------- ------- ---10-- -------10------ ------- ------- -------|
B|-------------------------------|7-------8-------7--------------|
G|------------------------7-H-9--|----7-----------7-------7------|
D|-------------------------------|-------------------------------|
A|-------------------------------|-------------------------------|
E|-------------------------------|-------------------------------|


x x

e|2------ 2------ 2------ 2---2--|----2-- ----2-- ----2-- ----2--|
B|3-------3-------3-------3---3--|----3-------3-------3-------3--|
G|2-------2-------2-------2---2--|----2-------2-------2-------2--|
D|0-------0-------0-------0---0--|----0-------0-------0-------0--|
A|-------------------------------|-------------------------------|
E|-------------------------------|-------------------------------|
what I could not say.
e/14----- ------- ------- 12-----|10----- ----\-- 5------ -------|
B|-------------------------------|-------------------------------|
G/14----------------------12-----|11----------\---7--------------|
D|-------------------------------|-------------------------------|
A|-------------------------------|-------------------------------|
E|-------------------------------|-------------------------------|



X X x X X X
A
e|0------ ------- ------- -------|------- ------- ------- -------|
B|2------------------------------|-------------------------------|
G|2------------------------------|-------------------------------|
D|2------------------------------|-------------------------------|
A|0------------------------------|-------------------------------|
E|-------------------------------|-------------------------------|
And so I quit the police department
Aaaaaaaaaaaaaaaaaaaaaaaaaaaaaaa
e/9------ ------- ------- -------|------- ------- ------- -------|
B|-------------------------------|-------------------------------|
G/9------------------------------|-------------------------------|
D|-------------------------------|-------------------------------|
A|-------------------------------|-------------------------------|
E|-------------------------------|-------------------------------|




D Dsus4 D
e|2------ 2------ 2------ 2---3--|----3-- 3---3-- 3---3-- 2---2--|
B|3-------3-------3-------3---3--|----3---3---3---3---3---3---3--|
G|2-------2-------2-------2---2--|----2---2---2---2---2---2---2--|
D|0-------0-------0-------0---0--|----0---0---0---0---0---0---0--|
A|-------------------------------|-------------------------------|
E|-------------------------------|-------------------------------|
ooooooooooooooooooooooooooooooooooooooooooooooooooooooooooooooo
e|------- ------- ------- -------|------- ------- ------- -------|
B|-------------------------------|-------------------------------|
G|-------------------------------|--------5---7--B8-R-7---5------|
D|-------------------------------|----7--------------------------|
A|-------------------------------|-------------------------------|
E|-------------------------------|-------------------------------|




A
e|0------ 0------ 0------ 0---0--|0---0-- ------- 0------ 0---0--|
B|2-------2-------2-------2---2--|2---2-----------2-------2---2--|
G|2-------2-------2-------2---2--|2---2-----------2-------2---2--|
D|2-------2-------2-------2---2--|2---2-----------2-------2---2--|
A|0-------0-------0-------0---0--|0---0-----------0-------0---0--|
E|-------------------------------|-------------------------------|
And got myself a steady job
Aaaaaaaaaaaaaaaaaaaaaaaaaaaaaaaaaaaaaaaaaaaaaaaaaaaaaaaaaaaaaaa
e|------- ------- ------- -------|------- ------- ------- -------|
B|-------------------------------|-------------------------------|
G|6--~---------------------------|-------------------------------|
D|-------------------------------|-------------------------------|
A|-------------------------------|-------------------------------|
E|-------------------------------|-------------------------------|



X X x x X X
D
e|2---2-- 2------ 2------ 2---2--|----2-- 2---2-- 2---2-- 2---2--|
B|3---3---3-------3-------3---3--|----3---3---3---3---3---3---3--|
G|2---2---2-------2-------2---2--|----2---2---2---2---2---2---2--|
D|0---0---0-------0-------0---0--|----0---0---0---0---0---0---0--|
A|-------------------------------|-------------------------------|
E|-------------------------------|-------------------------------|
ooooooooooooooooooooooooooooooooooooooooooooooooooooooooooooooo
e|------- ------- ------- -------|------- ------- ------- -------|
B|-------------------------------|------------------------8-B-10-R
G|----------------------------7--9B11R9-P-7-------7--------------|
D|--------------------7-H-9------|-------------------------------|
A|-------------------------------|-------------------------------|
E|-------------------------------|-------------------------------|




A
e|0------ 0------ 0------ ----0--|----0-- 0------ 0------ 0---0--|
B|2-------2-------2-----------2--|----2---2-------2-------2---2--|
G|2-------2-------2-----------2--|----2---2-------2-------2---2--|
D|2-------2-------2-----------2--|----2---2-------2-------2---2--|
A|0-------0-------0-----------0--|----0---0-------0-------0---0--|
E|-------------------------------|-------------------------------|
And though she tried her best to help
Aaaaaaaaaaaaaaaaaaaaaaaaaaaaaaaaaaaaaaaaaaaaaaaaaaaaaaaaaaaaaaa
e|------- ------- ------- -------|------- ------- ------- -------|
B|8--~---------------------------|-------------------------------|
G|-------------------------------|-------------------------------|
D|-------------------------------|-------------------------------|
A|-------------------------------|-------------------------------|
E|-------------------------------|-------------------------------|



X X X x X X
D Dsus4 D Dsus4 D Dsus4 D
e|2------ 2---3-- 2---2-- 2---3--|2---3-- 3---3-- 3---3-- 2---2--|
B|3-------3---3---3---3---3---3--|3---3---3---3---3---3---3---3--|
G|2-------2---2---2---2---2---2--|2---2---2---2---2---2---2---2--|
D|0-------0---0---0---0---0---0--|0---0---0---0---0---0---0---0--|
A|-------------------------------|-------------------------------|
E|-------------------------------|-------------------------------|
me She could steal
oooooooooooooooooooooooooooooooooooooooooooohhh
e|------- ------- ----10- -------|10----- ---10-- ------- 10-----|
B|------------------------7-H-8--|----7-H-8---7-------7----7-----|
G|------------------------7------|----7-------7------------7-----|
D|-------------------------------|-------------------------------|
A|-------------------------------|-------------------------------|
E|-------------------------------|-------------------------------|





e|2------ 2------ 2------ 2---2--|----2-- 2---2-- 2---2-- 2------|
B|3-------3-------3-------3---3--|----3---3---3---3---3---3------|
G|2-------2-------2-------2---2--|----2---2---2---2---2---2------|
D|0-------0-------0-------0---0--|----0---0---0---0---0---0------|
A|-------------------------------|-------------------------------|
E|-------------------------------|-------------------------------|
but she could not rob
Ooooooooooooooooooooooooooooooooooooooooooooooooooooooooooooooo
e/14----- ------- ------- 12-----|10----- ----\-- 5------ -------|
B|-------------------------------|-------------------------------|
G/14----------------------12-----|11----------\---7--------------|
D|-------------------------------|-------------------------------|
A|-------------------------------|-------------------------------|
E|-------------------------------|-------------------------------|



x x x X x x x
A
e|0------ ------- ------- -------|------- ------- ------- -------|
B|2------------------------------|-------------------------------|
G|2------------------------------|-------------------------------|
D|2------------------------------|-------------------------------|
A|0------------------------------|-------------------------------|
E|-------------------------------|-------------------------------|
Didn't anybody tell
ooooooooooooooooooooooohhh
e/9------ ------- ------- -------|------- ------- ------- -------|
B|-------------------------------|-------------------------------|
G/9------------------------------|-------------------------------|
D|-------------------------------|-------------------------------|
A|-------------------------------|-------------------------------|
E|-------------------------------|-------------------------------|




Dm A
e|1------ ------- 1------ ----1--|1---1-- 1------ 1------ 0---0--|
B|3---------------3-----------3--|3---3---3-------3-------2---2--|
G|2---------------2-----------2--|2---2---2-------2-------2---2--|
D|0---------------0-----------0--|0---0---0-------0-------2---2--|
A|-------------------------------|------------------------0---0--|
E|-------------------------------|-------------------------------|
her?
e|------- ------- ------- -------|------- ------- ------- -------|
B|-------------------------------|-------------------------------|
G|------------------------7------|9B10-----------9B10R9-P-7------|
D|--------------------7----------|-------------------------------|
A|-------------------------------|-------------------------------|
E|-------------------------------|-------------------------------|





e|0------ ------- 0------ ----0--|----0-- 0------ 0------ ----0--|
B|2---------------2-----------2--|----2---2-------2-----------2--|
G|2---------------2-----------2--|----2---2-------2-----------2--|
D|2---------------2-----------2--|----2---2-------2-----------2--|
A|0---------------0-----------0--|----0---0-------0-----------0--|
E|-------------------------------|-------------------------------|
Didn't anybody see?
e|------- ------- ------- -------|------- ------- ------- -------|
B|-------------------------------|-------------------------------|
G|6--~---------------------------|-------------------------------|
D|-------------------------------|-------------------------------|
A|-------------------------------|-------------------------------|
E|-------------------------------|-------------------------------|



x x x X X x X
Dm G
e|1------ 1------ 1------ 1---1--|1---1-- 1------ 1------ 1---3--|
B|3-------3-------3-------3---3--|3---3---3-------3-------3---3--|
G|2-------2-------2-------2---2--|2---2---2-------2-------2---0--|
D|0-------0-------0-------0---0--|0---0---0-------0-------0---0--|
A|-------------------------------|----------------------------2--|
E|-------------------------------|----------------------------3--|

e|------- ------- ------- -------|------- ------- ------- -------|
B|-------------------------------|-------------------------------|
G|------------------------7------|9B10-----------9B10R9-P-7------|
D|--------------------7----------|-------------------------------|
A|-------------------------------|-------------------------------|
E|-------------------------------|-------------------------------|




G
e|3------ 3------ 3------ 3---3--|----3-- 3------ 3------ 3---3--|
B|3-------3-------3-------3---3--|----3---3-------3-------3---3--|
G|0-------0-------0-------0---0--|----0---0-------0-------0---0--|
D|0-------0-------0-------0---0--|----0---0-------0-------0---0--|
A|2-------2-------2-------2---2--|----2---2-------2-------2---2--|
E|3-------3-------3-------3---3--|----3---3-------3-------3---3--|
Sundays on the phone to Monday,
e|------- ------- ------- -------|------- ------- ------- -------|
B|8--~---------------------------|-------------------------------|
G|-------------------------------|-------------------------------|
D|-------------------------------|-------------------------------|
A|-------------------------------|-------------------------------|
E|-------------------------------|-------------------------------|



X X x X X X X
C G
e|0------ 0------ 0------ 3------|------- 3------ 3------ 3---3--|
B|1-------1-------1-------3------|--------3-------3-------3---3--|
G|0-------0-------0-------0------|--------0-------0-------0---0--|
D|2-------2-------2-------0------|--------0-------0-------0---0--|
A|3-------3-------3-------2------|--------2-------2-------2---2--|
E|3-------3-------3-------3------|--------3-------3-------3---3--|

e|------- 8------B12R10-- 8------|------- ------- ------- -------|
B/10-----------------------------|10-\-8-------------------------|
G|-------------------------------|------------9-\-7-------5------|
D|-------------------------------|-------------------------------|
A|-------------------------------|-------------------------------|
E|-------------------------------|-------------------------------|





e|3------ ------- 3------ 3---3--|----3-- 3------ 3------ 3------|
B|3---------------3-------3---3--|----3---3-------3-------3------|
G|0---------------0-------0---0--|----0---0-------0-------0------|
D|0---------------0-------0---0--|----0---0-------0-------0------|
A|2---------------2-------2---2--|----2---2-------2-------2------|
E|3---------------3-------3---3--|----3---3-------3-------3------|
Tuesdays on the phone to me
e|------- ------- ------- -------|------- ------- ------- -------|
B|-------------------------------|----------------------------8-/|
G|-------------------------------|-------------------------------|
D|5------------------------------|-------------------------------|
A|-------------------------------|-------------------------------|
E|-------------------------------|-------------------------------|



(.
C A
e|0------ 0---0-- 0------ 0------|------- ------- ------- -------|
B|1-------1---1---1-------2------|-------------------------------|
G|0-------0---0---0-------2------|-------------------------------|
D|2-------2---2---2-------2------|-------------------------------|
A|3-------3---3---3-------0------|-------------------------------|
E|3-------3---3---3--------------|-------------------------------|
Oh, yeah
e|------- 8------ 12-\-8- 9--~---|------- ------- ------- -------|
B|10-----------------------------|-------------------------------|
G|-------------------------------|-------------------------------|
D|-------------------------------|-------------------------------|
A|-------------------------------|-------------------------------|
E|-------------------------------|-------------------------------|









B Bend
R Release
/ Slide up
\ Slide down
H Hammer-on
P Pull-off
~ Vibrato
+ Harmonic
x Mute note
. Play note like a dot in standard notation
^ Ties two notes together
(. Pause

pjvill

Submitted by pjvill at Thu 15 Dec, 2005 9:55 am

Author: ?
Composer: ?
Publisher: ?
Language: English

Reactions

CommonCrawl [Bot]

Follow Muzikum