The Beatles

The Beatles
Sgt Pepper's Lonely Hearts Club Band (Guitar tab)

------------------------------------------------------------------------
THE BEATLES - SGT. PEPPER'S LONELY HEARTS CLUB BAND (Lennon/McCartney)
Released 1st June 1967.

------------------------------------------------------------------------

Tabbed by:PJVillanueva






It was twenty years ago today,
Sgt. Pepper told the band to play
They've been going in and out of style
But they're guaranteed to raise a smile.
So may I introduce to you
The act you've known for all these years,
Sgt. Pepper's Lonely Hearts Club Band.
We're Sgt. Pepper's Lonely Hearts Club Band,
We hope you will enjoy the show,
Sgt. Pepper's Lonely Hearts Club Band,
Sit back and let the evening go.
Sgt. Pepper's lonely, Sgt. Pepper's lonely,
Sgt. Pepper's Lonely Hearts Club Band.
It's wonderful to be here,
It's certainly a thrill.
You're such a lovely audience,
We'd like to take you home with us,
We'd love to take you home.
I don't really want to stop the show,
But I thought that you might like to know,
That the singer's going to sing a song,
And he wants you all to sing along.
So let me introduce to you
The one and only Billy Shears
And Sgt. Pepper's Lonely Hearts Club Band.



A7 A7-9
E|----------------|----------------|--------8-------|----------------|
B|----------------|--------5-------|--5-----------8-|--------8-------|
G|--------6-----6-|----------------|6---------------|----------------|
D|5---------------|----------------|5---------------|----------------|
A|----7-----------|----------------|----------------|----------------|
E|5---------------|----------------|5---------------|----------------|

E|----------------|----------------|----------------|----------------|
B|----------------|--8-1010--------|----------------|--8-10----------|
G|----------------|9---------------|----------------|9---------------|
D|----------------|----------------|----------------|----------------|
A|----------------|----------------|----------------|----------------|
E|----------------|----------------|----------------|----------------|


C7 G7 X X X X X X
E|----------------|----------------|----------------|----------------|
B|----------------|3B5R3---1---0---|----------------|----------------|
G|---3------------|------------0---|----------------|----------------|
D|----------------|------------3---|----------------|----------------|
A|3---------------|----------------|----------------|----------------|
E|----------------|------------3---|----------------|----------------|
It was
E|--------------8-|----10----------|----------------|----------------|
B|----------8-10--|--------8\6-8---|----------------|----------------|
G|--------9-------|----------------|7---------------|----------------|
D|----------------|----------------|----------------|----------------|
A|----------------|----------------|----------------|----------------|
E|----------------|----------------|----------------|----------------|



G7 A7 C7 G7
E|----------------|----------------|----------------|----------------|
B|--------3-------|----------------|--------1-------|--3-3---3-------|
G|--------4-------|--------6-------|--------3-------|--4-4---3-------|
D|--------3-------|--------5-------|--------2-------|--3-3---3-------|
A|----------------|--------7-------|3---3-----------|----------------|
E|3-------------5-|--5-5-----------|--------------3-|----------------|
twenty years ago today, Sgt.Pepper told the band to play They've been

A7 C7 G7
E|----------------|----------------|----------------|----------------|
B|----------------|----------------|------------1---|--------3-------|
G|--------4-------|----------------|--3---------3---|--4-------------|
D|--------3-------|----------------|--2---------2---|--3-------------|
A|5---5---------7-|--7-7-----------|3---------------|----------------|
E|3---3---------5-|--5-5-----------|----------------|3-------------3-/
going in and out of style But they're guaranteed to raise a smile So

A7 C7
E|----------------|--------5-------|----------------|----------------|
B|--------5-------|--------5-------|--------1-----1-|--------1-------|
G|--------6-------|--------6-------|--------3-----3-|--------3-------|
D|5-5-5---5-----5-|--5-5---5-------|--------2-----2-|--------2-------|
A|7-7-7---------7-|--7-7---7-------|3---------------|3---------------|
E|5-5-5-----------|--5-5---5-------|----------------|----------------|
may I introduce to you the act you've known for all these years

G7 C7 G7
E|----------------|----------------|----------------|----------------|
B|----------------|--------1-------|----------------|--------3-------|
G|--------4-------|--------3-------|--------4-------|4-------4-------|
D|3-------3-------|--------2-------|--------3-------|3-------3-------|
A|5---------------|3---------------|--------5-------|5---------------|
E|3---------------|----------------|3---------------|----------------|
Sgt. Pepper's Lonely Hearts Club Band

C C7 C6 C C7 F Fsus4 F
E|3-------6---5---|3-----------3---|1-------1-------|1---------------|
B|5---------------|----5-------5---|1---1-----------|1---------------|
G|5---------------|--------5---3---|2-------2---3---|----2-------2---|
D|----------------|----------------|----------------|--------3-------|
A|----------------|----------------|----------------|----------------|
E|----------------|----------------|----------------|----------------|


C C7 C6 C Csus4 C D
E|3-------8---6---|5---------------|------------5---|8-------------5-|
B|5-------5---5---|5---8---6---5---|----5---7-------|7-----5-7---7---|
G|5-------5---5---|5---------------|7---------------|7P6H7---7-7-----|
D|----------------|----------------|----------------|----------------|
A|----------------|----------------|----------------|----------------|
E|----------------|----------------|----------------|----------------|



E|--------------5-|10--------------|
B|7-----5-7---7---|10--------------|
G|7P6H7---7-7-----|----------------|
D|----------------|----------------|
A|----------------|----------------|
E|----------------|----------------|
We're

G5 Bb5 C7 G5
E|----------------|----------------|----------------|----------------|
B|----------------|----------------|----------------|----------------|
G|----------------|3---3-----------|3---3-----------|----------------|
D|5---5-----------|3---3-----------|2---2-----------|5---5-----------|
A|5---5-----------|1---1-----------|3---3-----------|5---5-----------|
E|3---3-----------|----------------|----------------|3---3-----------|
Sgt.Pepper's Lonely Hearts Club Band We
E|----------------|----------------|----------------|----------------|
B|----------------|---------6------|--------6-------|--------6-------|
G|--5B7R5B7R5-----|---------5------|----------------|----------------|
D|----------------|----------------|----------------|----------------|
A|----------------|----------------|----------------|----------------|
E|----------------|----------------|----------------|----------------|

C7 F# G F# G F#
E|----------------|----------------|----------------|----------------|
B|----------------|----------------|----------------|----------------|
G|3---3-----------|3---3-----------|----------------|----------------|
D|2---2-----------|2---2---------4-|5---5---5---5\4-|5---5---5---4---|
A|3---3-----------|3---3---------4-|5---5---5---5\4-|5---5---5---4---|
E|----------------|--------------2-|3---3---3---3\2-|3---3---3---2---|
hope you will enjoy the show
E|----------------|----------------|----------------|----------------|
B|1-------1-------|1-------1-------|----------------|----------------|
G|3-------3-------|3-------3-------|4-------4-----4-|--4-4---4---4-3-|
D|2-------2-------|2-------2-------|3-------3-----3-|--3-3---3---3-2-|
A|3-------3-------|3-------3-------|5-------5-----5-|--5-5---5---5-4-|
E|----------------|----------------|3-------3-----3-|--3-3---3---3-2-|

G5 Bb5 C7 G5
E|----------------|----------------|----------------|----------------|
B|----------------|----------------|----------------|----------------|
G|----------------|3---3-----------|3---3-----------|----------------|
D|5---5-----------|3---3-----------|2---2-----------|5---5-----5-5---|
A|5---5-----------|1---1-----------|3---3-----------|5---5-----5-5---|
E|3---3-----------|----------------|----------------|3---3-----3-3---|
Sgt.Pepper's Lonely Hearts Club Band Sit
E|----------------|----------------|----------------|----------------|
B|--------6-------|----------------|----------------|----6-----------|
G|----------------|-----5B7R5B7R5B7|------------5B7R|5-------5-------|
D|----------------|----------------|----------------|----------------|
A|----------------|----------------|----------------|----------------|
E|----------------|----------------|----------------|----------------|

A5 D7
E|----------------|----------------|----------------|----------------|
B|----------------|----------------|1---1-----------|----------------|
G|----------------|----------------|2-------2-------|----------------|
D|7---7---7-----7-|7-----7-7-------|0-----------4---|0---------------|
A|7---7---7-----7-|7-----7-7-------|----------------|----------------|
E|5---5---5-----5-|5-----5-5-------|----------------|----------------|
back and let the evening go
E|----------------|----------------|----------------|----------------|
B|----------------|----------------|3---------------|----------------|
G|6-------6-----6-|--------6-------|5---------------|----------------|
D|5-------5-----5-|----5---5-------|4---------------|----------------|
A|7-------7-----7-|----7---7-------|5---------------|----------------|
E|5-------5-----5-|----5---5-------|----------------|----------------|

C7 G7
E|----------------|----------------|----------------|----------------|
B|1-------1---1---|1-------1-------|----------------|--------5-------|
G|3-------3---3---|3-------3-------|--------4-------|----4-----------|
D|2-------2---2---|2-------2-------|3-------3-----3-|----------------|
A|3-------3---3---|3-------3-------|5---------------|----------------|
E|----------------|----------------|3---------------|3---------------|
Sgt.Pepper's Lonely Sgt. Pepper's Lonely Sgt.

A7 C7 G7
E|----------------|----------------|----------------|----------------|
B|----------------|------------1---|----1-------3---|----3---3-------|
G|-------6--------|6-----------3---|----3-------4---|----4---4-------|
D|---5---5--------|5-----------2---|----2-------3---|----3---3-------|
A|---7------------|------------3---|----3-----------|----------------|
E|5---------------|----------------|------------3---|----3---3-------|
Pepper's Lonely Hearts Club Band It's

C7 F7
E|----------------|----------------|----------------|----------------|
B|--------1-----1-|--------1-------|--------------1-|----------------|
G|--------3-----3-|--------3-------|---------2----2-|----------------|
D|--------2-----2-|--------2-------|---------1------|----------------|
A|--------3-----3-|--------3-------|---------3------|----------------|
E|----------------|----------------|---------1------|----------------|
wonderful to be here It's certainly a thrill You're
E|8---------------|----------------|----------------|----------------|
B|5---------------|----------------|6---------------|----------------|
G|5---------------|----------------|5---------------|----------------|
D|----------------|----------------|7---------------|----------------|
A|----------------|----------------|----------------|----------------|
E|----------------|----------------|----------------|----------------|


C D
E|8---------------|----------------|10------10------|----------------|
B|5---------------|----------------|----10------10--|----10------10--|
G|5---------------|----------------|-7-------7------|-7------11------|
D|----------------|----------------|-----7-------7--|-----7-------7--|
A|----------------|----------------|----------------|-5-------9------|
E|----------------|----------------|----------------|----------------|
such a lovely audience We'd like to take you home with us, We'd


E|----------------|10--------------|
B|------------10--|----------------|
G|7---9---11------|-7--------------|
D|-------------7--|----------------|
A|5---7----9------|----------------|
E|----------------|----------------|
love to take you home I don't

G7 A7 C7 G7
E|----------------|----------------|----------------|----------------|
B|---------3------|----------------|---------1------|--------3-------|
G|---------4------|--------6-------|---------3------|--4-------------|
D|---------3------|--5-------------|---------2------|--3-------------|
A|---------5------|--7-------------|3---------------|----------------|
E|3---------------|5---------------|----------------|3---------------|
really want to stop the show, But I thought you might like to know that the
E|----------------|----5-----------|----------------|----3-----------|
B|----------------|----------------|----------------|----------------|
G|---------------/|6---------------|----------------|----------------|
D|----------------|----------------|----------------|----------------|
A|----------------|----------------|----------------|----------------|
E|----------------|----------------|----------------|----------------|

A7 C7 G7
E|----------------|----------------|----------------|----------------|
B|----------------|--------5-------|----------------|----------------|
G|--------4-------|--6-------------|----3-----------|--------4-------|
D|--------3-----3-|--5-------------|----------0-----|--3-------------|
A|--------5-------|----------------|3---------------|--5-------------|
E|3---3----------/|5---5-----------|----------------|3---------------|
singer's going to sing a song and he wants you all to sing along So
E|----------------|----5-----------|----------------|----3-----------|
B|----------------|----------------|----------------|----------------|
G|---------------/|6---------------|----------------|----------------|
D|----------------|----------------|----------------|----------------|
A|----------------|----------------|----------------|----------------|
E|----------------|----------------|----------------|----------------|

A7 C7
E|----------------|----------------|----------------|----------------|
B|----------------|----------------|--------1-----1-|--------1-------|
G|----------------|----------------|--------3-----3-|--------3-------|
D|--------5-----5-|---------5------|--------2-----2-|--------2-------|
A|--------7-----7-|---------7------|3---------------|3-------3-------|
E|5-----5-5---5-5-|---------5------|----------------|----------------|
let me introduce to you the one and only Billy Shears and
E|--------5-------|----5---5-------|----------------|----8---8---10--|
B|----------------|--5-------------|----------------|----------------|
G|----------------|----------------|----------------|----------------|
D|----------------|----------------|----------------|----------------|
A|----------------|----------------|----------------|----------------|
E|----------------|----------------|----------------|----------------|

G7 C7 G7
E|----------------|----------------|----------------|----------------|
B|----------------|----------------|----------------|----------------|
G|4-------4-------|3-----3---3-----|4-------4-------|4---------------|
D|3-------3-------|2-----2---2-----|3-------3-------|3---------------|
A|5-------5-------|3-----3---3-----|5-------5-------|5---------------|
E|3-------3-------|----------------|3-------3-------|3---------------|
Sgt. Pepper's Lonely Hearts Club Band
E|10--------------|----------------|----------------|----------------|
B|----------------|----------------|----------------|----------------|
G|----------------|----------------|----------------|----------------|
D|----------------|----------------|----------------|----------------|
A|----------------|----------------|----------------|----------------|
E|----------------|----------------|----------------|----------------|

(.
C
E|3---------------|----------------|----------------|----------------|
B|5---------------|----------------|----------------|----------------|
G|5---------------|----------------|----------------|----------------|
D|5---------------|----------------|----------------|----------------|
A|3---------------|----------------|3---------------|----------------|
E|--------6-------|5-------3-------|--------6-------|5-------3-------|...



As you all know, this ending is linked to "With a little help from my
friends" by a small passage. You can find it in the other tab.






B Bend
R Release
/ slide up
\ slide down
H hammer-on
P pull-off
~ vibrato
+ harmonic
x Mute note
. - play note like a dot in standard notation
^ - ties two notes together
(. Pause

pjvill

Submitted by pjvill at Thu 15 Dec, 2005 9:53 am

Author: ?
Composer: ?
Publisher: ?
Language: English

Reactions

CommonCrawl [Bot]

Follow Muzikum