The Beatles

The Beatles
Run For Your Life Ver 2 (Guitar tab)

---------------------------------------------------------------------

THE BEATLES - RUN FOR YOUR LIFE (Lennon/McCartney) from RUBBER SOUL
album. Released 3rd December 1965.


---------------------------------------------------------------------

Tabbed by:PJVillanueva



Use a bottleneck to play the slides of the third guitar
(but not an alternate tuning.)



Intro

1 2 3 4 D
E|-----------------2--|2----2----2--2-2--2-|2----2----2--2-2----|
B|-----------------3--|3----3----3--3-3--3-|3----3----3--3-3----|
G|-----------------2--|2----2----2--2-2--2-|2----2----2--2-2----|
D|-----------------0--|0----0----0--0-0--0-|0----0----0--0-0----|
A|-----------------0--|0----0----0--0-0--0-|0----0----0--0-0----|
E|--------------------|--------------------|--------------------|





E|2----2----2--2-2--2-|2----2----2--2-2----|2----2----2--2-2--2-|
B|3----3----3--3-3--3-|3----3----3--3-3----|3----3----3--3-3--3-|
G|2----2----2--2-2--2-|2----2----2--2-2----|2----2----2--2-2--2-|
D|0----0----0--0-0--0-|0----0----0--0-0----|0----0----0--0-0--0-|
A|0----0----0--0-0--0-|0----0----0--0-0----|0----0----0--0-0--0-|
E|--------------------|--------------------|--------------------|

E|--------------------|--------------------|--------------------|
B|-----1------0-------|--------------------|-----1------0-------|
G|--------------------|2-------------------|--------------------|
D|0-------------------|-------3----4-------|--------------------|
A|--------------------|--------------------|--------------------|
E|--------------------|--------------------|--------------------|

E|--------------------|--------------------|--------------------|
B|--------------------|--------------------|-----7--------------|
G|--------------------|---------------5--/-|7----7--------------|
D|--------------------|---------------5--/-|7----7--------------|
A|--------------------|--------------------|--------------------|
E|--------------------|--------------------|--------------------|





E|2----2----2--2-2--2-|2----2----2--2-2----|2----2----2--2-2--2-|
B|3----3----3--3-3--3-|3----3----3--3-3----|3----3----3--3-3--3-|
G|2----2----2--2-2--2-|2----2----2--2-2----|2----2----2--2-2--2-|
D|0----0----0--0-0--0-|0----0----0--0-0----|0----0----0--0-0--0-|
A|0----0----0--0-0--0-|0----0----0--0-0----|0----0----0--0-0--0-|
E|--------------------|--------------------|--------------------|

E|--------------------|--------------------|--------------------|
B|--------------------|--------------------|--------------------|
G|2-------------------|--------------------|--------------------|
D|-------3----4-------|--------------------|--------------------|
A|--------------------|--------------------|--------------------|
E|--------------------|--------------------|--------------------|

E|--------------------|--------------------|--------------------|
B|--------------------|-----7--------------|--------------------|
G|---------------5--/-|7----7--------------|--------------------|
D|---------------5--/-|7----7--------------|--------------------|
A|--------------------|--------------------|--------------------|
E|--------------------|--------------------|--------------------|




D
Well I'd rather see you dead, little girl
Bm
Than to be with another man
D
You better keep your head, little girl
Bm
Or I won't know where I am
E
You better run for your life if you can, little girl
Bm E
Hide your head in the sand little girl
Bm G
Catch you with another man
F# Bm D....
That's the end'a little girl




D
E|2----2----2--2-2--2-|2----2----2--2-2----|2----2----2--2-2--2-|
B|3----3----3--3-3--3-|3----3----3--3-3----|3----3----3--3-3--3-|
G|2----2----2--2-2--2-|2----2----2--2-2----|2----2----2--2-2--2-|
D|0----0----0--0-0--0-|0----0----0--0-0----|0----0----0--0-0--0-|
A|0----0----0--0-0--0-|0----0----0--0-0----|0----0----0--0-0--0-|
E|--------------------|--------------------|--------------------|

E|--------------------|--------------------|--------------------|
B|-----1------0-------|--------------------|-----1------0-------|
G|--------------------|2-------------------|--------------------|
D|0-------------------|-------3----4-------|--------------------|
A|--------------------|--------------------|--------------------|
E|--------------------|--------------------|--------------------|

E|--------------------|--------------------|--------------------|
B|-----7--------------|--------------------|-----7--------------|
G|5/7--7--------------|---------------5--/-|7----7--------------|
D|5/7--7--------------|---------------5--/-|7----7--------------|
A|--------------------|--------------------|--------------------|
E|--------------------|--------------------|--------------------|



Verse
D
E|2----2----2--2-2----|2----2----2--2-2--2-|2----2----2--2-2----|
B|3----3----3--3-3----|3----3----3--3-3--3-|3----3----3--3-3----|
G|2----2----2--2-2----|2----2----2--2-2--2-|2----2----2--2-2----|
D|0----0----0--0-0----|0----0----0--0-0--0-|0----0----0--0-0----|
A|0----0----0--0-0----|0----0----0--0-0--0-|0----0----0--0-0----|
E|--------------------|--------------------|--------------------|
Well you know....
E|--------------------|--------------------|--------------------|
B|--------------------|--------------------|--------------------|
G|2-------------------|--------------------|--------------------|
D|-------3----4-------|--------------------|--------------------|
A|--------------------|--------------------|--------------------|
E|--------------------|--------------------|--------------------|

E|--------------------|--------------------|--------------------|
B|--------------------|-----7--------------|--------------------|
G|---------------5--/-|7----7--------------|--------------------|
D|---------------5--/-|7----7--------------|--------------------|
A|--------------------|--------------------|--------------------|
E|--------------------|--------------------|--------------------|





D
Well you know that I'm a wicked guy
Bm
And I was born with a jealous mind
D
And I can't spend my whole life
Bm
Trying just to make you toe the line

E
You better run for your life if you can, little girl
Bm E
Hide your head in the sand little girl
Bm G
Catch you with another man
F# Bm
That's the end'a little girl




Solo


Bm D
E|--------------------|---------------15B16|---16R15-131513-----|
B|--------------------|--------------------|---------------15-13|
G|--------------------|--------------------|--------------------|
D|--------------------|--------------------|--------------------|
A|-----2----3----4----|5-------------------|--------------------|
E|--------------------|--------------------|--------------------|

E|--------------------|-----7--------------|--------------------|
B|---------------5-/--|7----7--------------|---------------5-/--|
G|---------------5-/--|7----7--------------|---------------5-/--|
D|---------------5-/--|7----7--------------|---------------5-/--|
A|--------------------|--------------------|--------------------|
E|--------------------|--------------------|--------------------|



G
E|--------------------|15B16-1616R1513-----|--------------------|
B|15---15-------------|---------------15-13|--------------------|
G|--------------------|--------------------|12---12-------------|
D|--------------------|--------------------|--------------------|
A|--------------------|--------------------|--------------------|
E|--------------------|--------------------|--------------------|

E|--------------------|--------------------|--------------------|
B|7----7--------------|---------------10-/-|12---12-------------|
G|7----7--------------|---------------10-/-|12---12-------------|
D|7----7--------------|---------------10-/-|12---12-------------|
A|----(0)-------------|--------------------|--------------------|
E|--------------------|--------------------|--------------------|


D
E|-----15-------------|--------------------|--------------------|
B|15B17--17R1513--1313H15---15-------------|-----10-------------|
G|--------------14----|--------------------|12B14--14R12P10-----|
D|--------------------|--------------------|---------------12-10|
A|--------------------|--------------------|--------------------|
E|--------------------|--------------------|--------------------|

E|--------------------|--------------------|--------------------|
B|---------------5-/--|7----7--------------|---------------12-/-|
G|---------------5-/--|7----7--------------|---------------12-/-|
D|---------------5-/--|7----7--------------|---------------12-/-|
A|--------------------|--------------------|--------------------|
E|--------------------|--------------------|--------------------|


A D
E|--------------------|--------------------|--------------------|
B|--------------------|--------------------|--------------------|
G|--------------------|--------------------|--------------------|
D|--------------------|-----12-----12-10-/-|12----12------------|
A|12---12-----------/-|12-----12------10-/-|12----12------------|
E|--------------------|--------------------|--------------------|

E|--------------------|--------------------|--------------------|
B|14---14-------------|---------------5-/--|7----7--------------|
G|14---14-------------|---------------5-/--|7----7--------------|
D|14---14-------------|---------------5-/--|7----7--------------|
A|--------------------|--------------------|--------------------|
E|--------------------|--------------------|--------------------|



Verse
D
E|--------------------|--------------------|--------------------|
B|-----10-------------|--------------------|--------------------|
G|12B14--14R12-10-----|--------------------|--------------------|
D|---------------10---|12------------------|--------------------|
A|--------------------|--------------------|--------------------|
E|--------------------|--------------------|--------------------|
Let this be a ser..mon....
E|--------------------|--------------------|--------------------|
B|---------------5-/--|7----7--------------|--------------------|
G|---------------5-/--|7----7--------------|--------------------|
D|---------------5-/--|7----7--------------|--------------------|
A|--------------------|--------------------|--------------------|
E|--------------------|--------------------|--------------------|




D
Let this be a sermon
Bm
I mean everything I've said
D
Baby, I'm determined
Bm
And I'd rather see you dead


E
You better run for your life if you can, little girl
Bm E
Hide your head in the sand little girl
Bm G
Catch you with another man
F# Bm D....
That's the end'a little girl




D
E|2----2----2--2-2--2-|2----2----2--2-2----|2----2----2--2-2--2-|
B|3----3----3--3-3--3-|3----3----3--3-3----|3----3----3--3-3--3-|
G|2----2----2--2-2--2-|2----2----2--2-2----|2----2----2--2-2--2-|
D|0----0----0--0-0--0-|0----0----0--0-0----|0----0----0--0-0--0-|
A|0----0----0--0-0--0-|0----0----0--0-0----|0----0----0--0-0--0-|
E|--------------------|--------------------|--------------------|

E|--------------------|--------------------|--------------------|
B|-----1------0-------|--------------------|-----1------0-------|
G|--------------------|2-------------------|--------------------|
D|0-------------------|-------3----4-------|--------------------|
A|--------------------|--------------------|--------------------|
E|--------------------|--------------------|--------------------|

E|--------------------|--------------------|--------------------|
B|-----7--------------|--------------------|-----7--------------|
G|5/7--7--------------|---------------5--/-|7----7--------------|
D|5/7--7--------------|---------------5--/-|7----7--------------|
A|--------------------|--------------------|--------------------|
E|--------------------|--------------------|--------------------|



Verse
D
E|2----2----2--2-2----|2----2----2--2-2--2-|2----2----2--2-2----|
B|3----3----3--3-3----|3----3----3--3-3--3-|3----3----3--3-3----|
G|2----2----2--2-2----|2----2----2--2-2--2-|2----2----2--2-2----|
D|0----0----0--0-0----|0----0----0--0-0--0-|0----0----0--0-0----|
A|0----0----0--0-0----|0----0----0--0-0--0-|0----0----0--0-0----|
E|--------------------|--------------------|--------------------|
I'd rather......
E|--------------------|--------------------|--------------------|
B|--------------------|--------------------|--------------------|
G|2-------------------|--------------------|--------------------|
D|-------3----4-------|--------------------|--------------------|
A|--------------------|--------------------|--------------------|
E|--------------------|--------------------|--------------------|

E|--------------------|--------------------|--------------------|
B|--------------------|-----7--------------|--------------------|
G|---------------5--/-|7----7--------------|--------------------|
D|---------------5--/-|7----7--------------|--------------------|
A|--------------------|--------------------|--------------------|
E|--------------------|--------------------|--------------------|





D
I'd rather see you dead, little girl
Bm
Than to be with another man
D
You better keep your head, little girl
Bm
Or you won't know where I am

E
You better run for your life if you can, little girl
Bm E
Hide your head in the sand little girl
Bm G
Catch you with another man
F# Bm D....
That's the end'a little girl



Coda

D
E|2----2----2--2-2--2-|2----2----2--2-2----|2----2----2--2-2--2-|
B|3----3----3--3-3--3-|3----3----3--3-3----|3----3----3--3-3--3-|
G|2----2----2--2-2--2-|2----2----2--2-2----|2----2----2--2-2--2-|
D|0----0----0--0-0--0-|0----0----0--0-0----|0----0----0--0-0--0-|
A|0----0----0--0-0--0-|0----0----0--0-0----|0----0----0--0-0--0-|
E|--------------------|--------------------|--------------------|

E|--------------------|--------------------|--------------------|
B|-----1------0-------|--------------------|-----1------0-------|
G|--------------------|2-------------------|--------------------|
D|0-------------------|-------3----4-------|--------------------|
A|--------------------|--------------------|--------------------|
E|--------------------|--------------------|--------------------|

E|--------------------|--------------------|--------------------|
B|-----7--------------|---------------5--7-|7----7--------------|
G|5/7--7--------------|---------------5--/-|7----7--------------|
D|5/7--7--------------|---------------5--/-|7----7--------------|
A|--------------------|--------------------|--------------------|
E|--------------------|--------------------|--------------------|





E|2----2----2--2-2----|2----2----2--2-2--2-|2----2----2--2-2----|
B|3----3----3--3-3----|3----3----3--3-3--3-|3----3----3--3-3----|
G|2----2----2--2-2----|2----2----2--2-2--2-|2----2----2--2-2----|
D|0----0----0--0-0----|0----0----0--0-0--0-|0----0----0--0-0----|
A|0----0----0--0-0----|0----0----0--0-0--0-|0----0----0--0-0----|
E|--------------------|--------------------|--------------------|
Na na na Na na na
E|--------------------|--------------------|--------------------|
B|--------------------|-----1------0-------|--------------------|
G|2-------------------|--------------------|2-------------------|
D|-------3----4-------|--------------------|-------3----4-------|
A|--------------------|--------------------|--------------------|
E|--------------------|--------------------|--------------------|

E|--------------------|--------------------|--------------------|
B|---------------5--/-|7----7--------------|---------------5-/--|
G|---------------5--/-|7----7--------------|---------------5-/--|
D|---------------5--/-|7----7--------------|---------------5-/--|
A|--------------------|--------------------|--------------------|
E|--------------------|--------------------|--------------------|



E|2----2----2--2-2--2-|2----2----2--2-2----|2----2----2--2-2--2-|
B|3----3----3--3-3--3-|3----3----3--3-3----|3----3----3--3-3--3-|
G|2----2----2--2-2--2-|2----2----2--2-2----|2----2----2--2-2--2-|
D|0----0----0--0-0--0-|0----0----0--0-0----|0----0----0--0-0--0-|
A|0----0----0--0-0--0-|0----0----0--0-0----|0----0----0--0-0--0-|
E|--------------------|--------------------|--------------------|
Na na na
E|--------------------|--------------------|--------------------|
B|-----1------0-------|--------------------|-----1------0-------|
G|--------------------|2-------------------|--------------------|
D|--------------------|-------3----4-------|--------------------|
A|--------------------|--------------------|--------------------|
E|--------------------|--------------------|--------------------|

E|--------------------|--------------------|--------------------|
B|7----7--------------|---------------5-/--|7----7--------------|
G|7----7--------------|---------------5-/--|7----7--------------|
D|7----7--------------|---------------5-/--|7----7--------------|
A|--------------------|--------------------|--------------------|
E|--------------------|--------------------|--------------------|



E|2----2----2--2-2----|2----2----2--2-2--2-|2----2----2--2-2----|
B|3----3----3--3-3----|3----3----3--3-3--3-|3----3----3--3-3----|
G|2----2----2--2-2----|2----2----2--2-2--2-|2----2----2--2-2----|
D|0----0----0--0-0----|0----0----0--0-0--0-|0----0----0--0-0----|
A|0----0----0--0-0----|0----0----0--0-0--0-|0----0----0--0-0----|
E|--------------------|--------------------|--------------------|
Na na na
E|--------------------|--------------------|--------------------|
B|--------------------|-----1------0-------|--------------------|
G|2-------------------|--------------------|2-------------------|
D|-------3----4-------|--------------------|-------3----4-------|
A|--------------------|--------------------|--------------------|
E|--------------------|--------------------|--------------------|

E|--------------------|--------------------|--------------------|
B|---------------5-/--|7----7--------------|--------------------|
G|---------------5-/--|7----7--------------|--------------------|
D|---------------5-/--|7----7--------------|--------------------|
A|--------------------|--------------------|--------------------|
E|--------------------|--------------------|--------------------|

.............................Fade.............................







B Bend
R Release
/ slide up
\ slide down
H hammer-on
P pull-off
~ vibrato
+ harmonic
x Mute note
. - play note like a dot in standard notation
^ - ties two notes together
(. Pause

pjvill

Submitted by pjvill at Thu 15 Dec, 2005 9:51 am

Author: ?
Composer: ?
Publisher: ?
Language: English

Reactions

CommonCrawl [Bot]

Follow Muzikum