The Beatles

The Beatles
Revolution Ver 3 (Guitar tab)

--------------------------------------------------------------------

THE BEATLES - REVOLUTION (Lennon/McCartney) First released on 30th
August 1968 as the B side of HEY JUDE single.


--------------------------------------------------------------------

Tabbed by:PJVillanueva




You say you want a revolution
Well, you know
We all want to change the world
You tell me that it's evolution
Well, you know
We all want to change the world
But when you talk about destruction
Don't you know that you can count me out
Don't you know it's gonna be all right
all right, all right

You say you got a real solution
Well, you know
We'd all love to see the plan
You ask me for a contribution
Well, you know
We're doing what we can
But when you want money
for people with minds that hate
All I can tell is brother you have to wait
Don't you know it's gonna be all right
all right, all right
Ah

ah, ah, ah, ah, ah...

You say you'll change the constitution
Well, you know
We all want to change your head
You tell me it's the institution
Well, you know
You better free you mind instead
But if you go carrying pictures of chairman Mao
You ain't going to make it with anyone anyhow
Don't you know it's gonna be all right
all right, all right
all right, all right, all right
all right, all right, all right





Use a capo on the second fret





e/5-5-5- 5-5-5- 5-5-5- 5-5-5-/5-5-5- 5-5-5- 5-5-5- 5-5-5-|
B/5-5-5--5-5-5--5-5-5--5-5-5-/5-5-5--5-5-5--5-5-5--5-5-5-|
G|---------------------------|---------------------------|
D|---------------------------|---------------------------|
A|---------------------------|---------------------------|
E|---------------------------|---------------------------|


X
x
e/5-5-5- 5-5-5- 5-5-5- 5-5-5-|------ ------ --12-- ------|
B/5-5-5--5-5-5--5-5-5--5-5-5-|8B--------810B12-------0-3-|
G|---------------------------|---------9-----------------|
D|---------------------------|---------------------------|
A|---------------------------|---------------------------|
E|---------------------------|---------------------------|
You




A5 A6 ...
e|------ ------ ------ ------|------ ------ ------ ------|
B|---------------------------|---------------------------|
G|---------------------------|---------------------------|
D|2---2--2H4----2---2--2H4---|2---2--2H4----2---2--2H4---|
A|0---0--0---0--0---0--0---0-|0---0--0---0--0---0--0---0-|
E|---------------------------|---------------------------|
Say you want a re..vo.....lu.....tion Well
A A6A7 ...
e|------ ------ ------ ------|------ ------ ------ ------|
B|---------------------------|---------------------------|
G|-----------0---------------|-----------0---------------|
D|2---2--2H4-2---------------|----2--2H4-2---------------|
A|0---0--0---0---------------|----0--0---0---------------|
E|---------------------------|---------------------------|






e|------ ------|
B|-------------|
G|-------------|
D|2---2--2H4---|
A|0---0--0---0-|
E|-------------|
You know




D5 D6 ....
e|------ ------ ------ ------|------ ------ ------ ------|
B|---------------------------|---------------------------|
G|2---2--2H4----2---2--2H4---|2---2--2H4----2---2--2H4---|
D|0---0--0---0--0---0--0---0-|0---0--0---0--0---0--0---0-|
A|---------------------------|---------------------------|
E|---------------------------|---------------------------|
D7 We all want to change the
e|------ ------ ------ ------|------ ------ ------ ------|
B|-----------1---------------|-----------1---------------|
G|-------2H4-2---------------|-------2H4-2---------------|
D|-------0---0---------------|-------0---0---------------|
A|---------------------------|---------------------------|
E|---------------------------|---------------------------|





A
e|------ ------ ------ ------|------ ------ ------ ------|
B|---------------------------|---------------------------|
G|---------------------------|---------------------------|
D|2---2--2H4----2---2--2H4---|2---2--2H4----2---2--2H4---|
A|0---0--0---0--0---0--0---0-|0---0--0---0--0---0--0---0-|
E|---------------------------|---------------------------|
World
e|------ ------ ------ ------|------ ------ ------ ------|
B|---------------------------|---------------------------|
G|-----------0---------------|-----------0---------------|
D|----2--2H4-2---------------|----2--2H4-2---------------|
A|----0--0---0---------------|----0--0---0---------------|
E|---------------------------|---------------------------|
You





e|------ ------ ------ ------|------ ------ ------ ------|
B|---------------------------|---------------------------|
G|---------------------------|---------------------------|
D|2---2--2H4----2---2--2H4---|2---2--2H4----2---2--2H4---|
A|0---0--0---0--0---0--0---0-|0---0--0---0--0---0--0---0-|
E|---------------------------|---------------------------|
Tell me that it's evo.....lu.....tion Well
e|------ ------ ------ ------|------ ------ ------ ------|
B|---------------------------|---------------------------|
G|-----------0---------------|-----------0---------------|
D|2---2--2H4-2---------------|----2--2H4-2---------------|
A|0---0--0---0---------------|----0--0---0---------------|
E|---------------------------|---------------------------|





e|------ ------|
B|-------------|
G|-------------|
D|2---2--2H4---|
A|0---0--0---0-|
E|-------------|
You know




D
e|------ ------ ------ ------|------ ------ ------ ------|
B|---------------------------|---------------------------|
G|2---2--2H4----2---2--2H4---|2---2--2H4----2---2--2H4---|
D|0---0--0---0--0---0--0---0-|0---0--0---0--0---0--0---0-|
A|---------------------------|---------------------------|
E|---------------------------|---------------------------|
We all want to change the
e|------ ------ ------ ------|------ ------ ------ ------|
B|-----------1---------------|-----------1---------------|
G|----2--2H4-2---------------|----2--2H4-2---------------|
D|----0--0---0---------------|----0--0---0---------------|
A|---------------------------|---------------------------|
E|---------------------------|---------------------------|





E
e|------ ------ ------ ------|------ ------ ------ ------|
B|---------------------------|---------------------------|
G|---------------------------|---------------------------|
D|---------------------------|---------------------------|
A|2---2--2H4----2---2--2H4---|2---2--2H4----2---2--2H4---|
E|0---0--0---0--0---0--0---0-|0---0--0---0--0---0--0---0-|
World
e|------ ------ ------ ------|------ ------ ------ ------|
B|---------------------------|---------------------------|
G|---------------------------|---------------------------|
D|-----------0---------------|-----------0---------------|
A|----2--2H4-2---------------|----2--2H4-2---------------|
E|----0--0---0---------------|----0--0---0---------------|





Bm
e|2----- ------ ------ ------|0----- ------ ------ ------|
B|3--------------------------|0--------------------------|
G|4--------------------------|1--------------------------|
D|4--------------------------|2--------------------------|
A|2--------------------------|2--------------------------|
E|2--------------------------|0--------------------------|
But when you talk about destruction




Bm G5 A5 F#
e|2----- ------ ------ ------|------ ------ ------ ------|
B|3--------------------------|---------------------------|
G|4--------------------------|-----------3---------3-----|
D|4--------------------------|5---7------4---------4-----|
A|2--------------------------|5---7------4---------4-----|
E|2--------------------------|3---5------2---------2-----|
Don't you know that you can count me out




E
e|------ ------|------ ------ ------ ------|
B|-------------|---------------------------|
G|3------3-----|1------1------1------1-----|
D|4------4-----|2------2------2------2-----|
A|4------4-----|2------2------2------2-----|
E|2------2-----|0------0------0------0-----|
Don't you know it's gonna be




A D
e|------ ------ ------ ------|------ ------ ------ ------|
B|---------------------------|---------------------------|
G|---------------------------|2---2--2H4----2---2--2H4---|
D|2---2--2H4----2---2--2H4---|0---0--0---0--0---0--0---0-|
A|0---0--0---0--0---0--0---0-|---------------------------|
E|---------------------------|---------------------------|
All....right
e|------ ------ ------ ------|------ ------ ------ ----9-|
B|---------------------------|-------------------------10|
G|-------9H119---------------|-------------------------9-|
D|-------7---7---------------|-------7H9-7--7---7--7H9---|
A|-------0---0---------------|-------5---5--5H9-5--5-----|
E|---------------------------|---------------------------|





A D
e|------ ------ ------ ------|------ ------ ------ ------|
B|---------------------------|---------------------------|
G|---------------------------|2---2--2H4----2---2--2H4---|
D|2---2--2H4----2---2--2H4---|0---0--0---0--0---0--0---0-|
A|0---0--0---0--0---0--0---0-|---------------------------|
E|---------------------------|---------------------------|
All....right
e|------ ------ ------ ------|------ ------ ------ ----9-|
B|---------------------------|-------------------------10|
G|----9--9H119---------------|-------------------------9-|
D|----7--7---7---------------|----7--7H9-7--7---7--7H9---|
A|----0--0---0---------------|----5--5---5--5H9-5--5-----|
E|---------------------------|---------------------------|





A D
e|------ ------ ------ ------|------ ------ ------ ------|
B|---------------------------|---------------------------|
G|---------------------------|2---2--2H4----2---2--2H4---|
D|2---2--2H4----2---2--2H4---|0---0--0---0--0---0--0---0-|
A|0---0--0---0--0---0--0---0-|---------------------------|
E|---------------------------|---------------------------|
All....right
e|------ ------ ------ ------|------ ------ ------ ------|
B|---------------------------|---------------------------|
G|----9--9H119---------------|---------------------------|
D|----7--7---7---------------|----7--7H9-7--7---7--7H9P7-|
A|----0--0---0---------------|----5--5---5--5H9-5--5---5-|
E|---------------------------|---------------------------|






e|------ ------ ------ ------|------ ------ ------ ------|
B|---------------------------|---------------------------|
G|---------------------------|---------------------------|
D|-----------0--------------2|-----------0-------------0-|
A|-------0H2-----------2H4---|-------0H2-----------2H4---|
E|0---0-------------0--------|----0-------------0--------|
You




A5 A6 ...
e|------ ------ ------ ------|------ ------ ------ ------|
B|---------------------------|---------------------------|
G|---------------------------|---------------------------|
D|2---2--2H4----2---2--2H4---|2---2--2H4----2---2--2H4---|
A|0---0--0---0--0---0--0---0-|0---0--0---0--0---0--0---0-|
E|---------------------------|---------------------------|
Say you got a real so......lu....tion Well
A A6A7 ...
e|------ ------ ------ ------|------ ------ ------ ------|
B|---------------------------|---------------------------|
G|-------9H119---------------|-------9H119---------------|
D|-------7---7---------------|-------7---7---------------|
A|-------0---0---------------|-------0---0---------------|
E|---------------------------|---------------------------|





e|------ ------|
B|-------------|
G|-------------|
D|2---2--2H4---|
A|0---0--0---0-|
E|-------------|
You know





D5 D6 ....
e|------ ------ ------ ------|------ ------ ------ ------|
B|---------------------------|---------------------------|
G|2---2--2H4----2---2--2H4---|2---2--2H4----2---2--2H4---|
D|0---0--0---0--0---0--0---0-|0---0--0---0--0---0--0---0-|
A|---------------------------|---------------------------|
E|---------------------------|---------------------------|
D7 We'd all love to see the plan
e|------ ------ ------ ------|------ ------ ------ ------|
B|---------------------------|---------------------------|
G|-----------5---------------|-----------5---------------|
D|-------7H9-7---------------|-------7H9-7---------------|
A|-------5---5---------------|-------5---5---------------|
E|---------------------------|---------------------------|





A
e|------ ------ ------ ------|------ ------ ------ ------|
B|---------------------------|---------------------------|
G|---------------------------|---------------------------|
D|2---2--2H4----2---2--2H4---|2---2--2H4----2H4-2--2H4---|
A|0---0--0---0--0---0--0---0-|0---0--0---0--0---0--0---0-|
E|---------------------------|---------------------------|

e|------ ------ ------ ------|------ ------ ------ ------|
B|---------------------------|---------------------------|
G|----9--9H119---------------|----9--9H119---------------|
D|----7--7---7---------------|----7--7---7---------------|
A|----0--0---0---------------|----0--0---0---------------|
E|---------------------------|---------------------------|
You





e|------ ------ ------ ------|------ ------ ------ ------|
B|---------------------------|---------------------------|
G|---------------------------|---------------------------|
D|2---2--2H4----2---2--2H4---|2---2--2H4----2---2--2H4---|
A|0---0--0---0--0---0--0---0-|0---0--0---0--0---0--0---0-|
E|---------------------------|---------------------------|
Ask me for a con..tri....bu.....tion Well
e|------ ------ ------ ------|------ ------ ------ ------|
B|---------------------------|---------------------------|
G|-------9H119---------------|-------9H119-------------9-|
D|-------7---7---------------|-------7---7-------------7-|
A|-------0---0---------------|-------0---0-------------0-|
E|---------------------------|---------------------------|





e|------ ------|
B|-------------|
G|-------------|
D|2---2--2H4---|
A|0---0--0---0-|
E|-------------|
You know




D
e|------ ------ ------ ------|------ ------ ------ ------|
B|---------------------------|---------------------------|
G|2---2--2H4----2---2--2H4---|2---2--2H4----2---2--2H4---|
D|0---0--0---0--0---0--0---0-|0---0--0---0--0---0--0---0-|
A|---------------------------|---------------------------|
E|---------------------------|---------------------------|
We are doing what we can
e|------ ------ ------ ------|------ ------ ------ ------|
B|---------------------------|---------------------------|
G|-----------5---------------|-----------5---------------|
D|-------7H9-7---------------|-------7H9-7---------------|
A|-------5---5---------------|-------5---5---------------|
E|---------------------------|---------------------------|





E
e|------ ------ ------ ------|------ ------ ------ ------|
B|---------------------------|---------------------------|
G|---------------------------|---------------------------|
D|---------------------------|---------------------------|
A|2---2--2H4----2---2--2H4---|2---2--2H4----2---2--2H4---|
E|0---0--0---0--0---0--0---0-|0---0--0---0--0---0--0---0-|

e|------ ------ ------ ------|------ 0----- ------ ------|
B|---------------------------|-------0-------------------|
G|4------4H6-4---------------|-------4-------------------|
D|2------2---2---------------|-------2-------------------|
A|---------------------------|---------------------------|
E|0---0--0---0---------------|-------0-------------------|





Bm
e|2----- ------ ------ ------|0----- ------ ------ ------|
B|3--------------------------|0--------------------------|
G|4--------------------------|1--------------------------|
D|4--------------------------|2--------------------------|
A|2--------------------------|2--------------------------|
E|2--------------------------|0--------------------------|
Butifyouwantmoneyforpeoplewithminds that hate





Bm G5 A5 F#
e|2----- ------ ------ ------|------ ------ ------ ------|
B|3--------------------------|---------------------------|
G|4--------------------------|-----------3---------3-----|
D|4--------------------------|5---7------4---------4-----|
A|2--------------------------|5---7------4---------4-----|
E|2--------------------------|3---5------2---------2-----|
AllIcantellyouisbrotheryou have to wait





E
e|------ ------|------ ------ ------ ------|
B|-------------|---------------------------|
G|3------3-----|1------1------1------1-----|
D|4------4-----|2------2------2------2-----|
A|4------4-----|2------2------2------2-----|
E|2------2-----|0------0------0------0-----|
Don't you know it's gonna be





A D
e|------ ------ ------ ------|------ ------ ------ ------|
B|---------------------------|---------------------------|
G|---------------------------|2---2--2H4----2---2--2H4---|
D|2---2--2H4----2---2--2H4---|0---0--0---0--0---0--0---0-|
A|0---0--0---0--0---0--0---0-|---------------------------|
E|---------------------------|---------------------------|
All....right
e|------ ------ ------ ------|------ ------ ------ ----9-|
B|---------------------------|-------------------------10|
G|-------9H119---------------|-------------------------9-|
D|-------7---7---------------|-------7H9-7--7---7--7H9---|
A|-------0---0---------------|-------5---5--5H9-5--5-----|
E|---------------------------|---------------------------|





A D
e|------ ------ ------ ------|------ ------ ------ ------|
B|---------------------------|---------------------------|
G|---------------------------|2---2--2H4----2---2--2H4---|
D|2---2--2H4----2---2--2H4---|0---0--0---0--0---0--0---0-|
A|0---0--0---0--0---0--0---0-|---------------------------|
E|---------------------------|---------------------------|
All....right
e|------ ------ ------ ------|------ ------ ------ ----9-|
B|---------------------------|-------------------------10|
G|----9--9H119---------------|-------------------------9-|
D|----7--7---7---------------|----7--7H9-7--7---7--7H9---|
A|----0--0---0---------------|----5--5---5--5H9-5--5-----|
E|---------------------------|---------------------------|





A D
e|------ ------ ------ ------|------ ------ ------ ------|
B|---------------------------|---------------------------|
G|---------------------------|2---2--2H4----2---2--2H4---|
D|2---2--2H4----2---2--2H4---|0---0--0---0--0---0--0---0-|
A|0---0--0---0--0---0--0---0-|---------------------------|
E|---------------------------|---------------------------|
All....right
e|------ ------ ------ ------|------ ------ ------ ------|
B|---------------------------|---------------------------|
G|----9--9H119---------------|------------------7--------|
D|----7--7---7---------------|----7--7H9-7--9---7--------|
A|----0--0---0---------------|----5--5---5--5---5--------|
E|---------------------------|---------------------------|






e|------ ------ ------ ------|------ ------ ------ ------|
B|---------------------------|---------------------------|
G|---------------------------|---------------------------|
D|-----------0--------------2|-----------0-------------0-|
A|-------0H2-----------2H4---|-------0H2-----------2H4---|
E|0---0-------------0--------|----0-------------0--------|

e|------ ------ ------ ---12-|------12----- --12-- -----12
B|------------------------12-B-13-R-12-B-13-R-12-B-13-R-12...
G|---------------------------|---------------------------|
D|---------------------------|---------------------------|
A|---------------------------|---------------------------|
E|---------------------------|---------------------------|




(Piano solo)

A
e|------ ------ ------ ------|------ ------ ------ ------|
B|---------------------------|---------------------------|
G|---------------------------|---------------------------|
D|2---2--2H4----2---2--2H4---|2---2--2H4----2---2--2H4---|
A|0---0--0---0--0---0--0---0-|0---0--0---0--0---0--0---0-|
E|---------------------------|---------------------------|






e|------ ------|
B|-------------|
G|-------------|
D|2---2--2H4-2-|
A|0---0--0---0-|
E|-------------|





D
e|------ ------ ------ ------|------ ------ ------ ------|
B|---------------------------|---------------------------|
G|2---2--2H4----2---2--2H4---|2---2--2H4----2---2--2H4---|
D|0---0--0---0--0---0--0---0-|0---0--0---0--0---0--0---0-|
A|---------------------------|---------------------------|
E|---------------------------|---------------------------|

e|------ ----5- ------ 2-----|0----- ------ ------ 5-----|
B|---------------------------|----3---------5---7--------|
G|-----/-5-------------------|-----------4---------------|
D|---------------------------|---------------------------|
A|---------------------------|---------------------------|
E|---------------------------|---------------------------|






E
e|------ ------ ------ ------|------ ------ ------ ------|
B|---------------------------|---------------------------|
G|---------------------------|---------------------------|
D|---------------------------|---------------------------|
A|2---2--2H4----2---2--2H4---|2---2--2H4----2---2--2H4---|
E|0---0--0---0--0---0--0---0-|0---0--0---0--0---0--0---0-|

e|------ ------ ------ ------|------ ------ ------ ------|
B|---------------------------|---------------------------|
G|---------------------------|---------------------------|
D|-----------0--------------2|-----------0-------------2-|
A|-------0H2-----------2H4---|-------0H2-----------2H4---|
E|0---0-------------0--------|----0-------------0--------|

e|------ ------ ------ ------|------ ------ ------ ------|
B|4B5-4B5--4B5--4B5-4B5--4B5-|4B5-4B5--4B5-4B5--4B5--4B5-|
G|---------------------------|---------------------------|
D|---------------------------|---------------------------|
A|---------------------------|---------------------------|
E|---------------------------|---------------------------|






e|------ ------ ------ ------|------ ------ ------ ------|
B|---------------------------|---------------------------|
G|---------------------------|---------------------------|
D|-----------0--------------2|-----------0-------------2-|
A|-------0H2-----------2H4---|-------0H2-----------2H4---|
E|0---0-------------0--------|----0-------------0--------|
You
e|------ ------ ------ ------|------ ------ ------ ------|
B|4B5-4B5--6R5--6R5-6R5--6R5-|6R5-6R5--6R5-6R5B6R5B6R5B6R|
G|---------------------------|---------------------------|
D|---------------------------|---------------------------|
A|---------------------------|---------------------------|
E|---------------------------|---------------------------|





A
e|------ ------ ------ ------|------ ------ ------ ------|
B|---------------------------|---------------------------|
G|---------------------------|---------------------------|
D|2---2--2H4----2---2--2H4---|2---2--2H4----2---2--2H4---|
A|0---0--0---0--0---0--0---0-|0---0--0---0--0---0--0---0-|
E|---------------------------|---------------------------|
say you'll change the constitution Well
e|------ ------ ------ ------|------ ------ ------ ------|
B|---------------------------|---------------------------|
G|-------9H119---------------|-------9H119---------------|
D|-------7---7---------------|-------7---7---------------|
A|-------0---0---------------|-------0---0---------------|
E|---------------------------|---------------------------|






e|------ ------|
B|-------------|
G|-------------|
D|2---2--2H4---|
A|0---0--0---0-|
E|-------------|
You know




D
e|------ ------ ------ ------|------ ------ ------ ------|
B|---------------------------|---------------------------|
G|2---2--2H4----2---2--2H4---|2---2--2H4----2---2--2H4---|
D|0---0--0---0--0---0--0---0-|0---0--0---0--0---0--0---0-|
A|---------------------------|---------------------------|
E|---------------------------|---------------------------|
We all want to change your
e|------ ------ ------ ------|------ ------ ------ ------|
B|-------------------------7-|---------------------------|
G|---------------------------|-----------5---------------|
D|-------7H9-7---------------|-----------7---------------|
A|-------5---5---------------|-----------5---------------|
E|---------------------------|---------------------------|





A
e|------ ------ ------ ------|------ ------ ------ ------|
B|---------------------------|---------------------------|
G|---------------------------|---------------------------|
D|2---2--2H4----2---2--2H4---|2---2--2H4----2---2--2H4---|
A|0---0--0---0--0---0--0---0-|0---0--0---0--0---0--0---0-|
E|---------------------------|---------------------------|
head You
e|------ ------ ------ ------|------ ------ ------ ------|
B|---------------------------|---------------------------|
G|-----9-9H119---------------|-------9H119--9------------|
D|-----7-7---7---------------|-------7---7--7------------|
A|-----0-0---0---------------|-------0---0--0------------|
E|---------------------------|---------------------------|





A
e|------ ------ ------ ------|------ ------ ------ ------|
B|---------------------------|---------------------------|
G|---------------------------|---------------------------|
D|2---2--2H4----2---2--2H4---|2---2--2H4----2---2--2H4---|
A|0---0--0---0--0---0--0---0-|0---0--0---0--0---0--0---0-|
E|---------------------------|---------------------------|
tell me it's the insti...tu.....tion Well
e|------ ------ ------ ------|------ ------ ------ ------|
B|---------------------------|---------------------------|
G|----9--9H119---------------|----9--9H119-------------9-|
D|----7--7---7---------------|----7--7---7-------------7-|
A|----0--0---0---------------|----0--0---0-------------0-|
E|---------------------------|---------------------------|






e|------ ------|
B|-------------|
G|-------------|
D|2---2--2H4---|
A|0---0--0---0-|
E|-------------|
You know




D
e|------ ------ ------ ------|------ ------ ------ ------|
B|---------------------------|---------------------------|
G|2---2--2H4----2---2--2H4---|2---2--2H4----2---2--2H4---|
D|0---0--0---0--0---0--0---0-|0---0--0---0--0---0--0---0-|
A|---------------------------|---------------------------|
E|---------------------------|---------------------------|
You better free your mind instead
e|------ ------ ------ ------|------ ------ ------ ------|
B|---------------------------|---------------------------|
G|-----------5---------------|-----------5---------------|
D|-------7H9-7---------------|-------7H9-7---------------|
A|-------5---5---------------|-------5---5---------------|
E|---------------------------|---------------------------|





E
e|------ ------ ------ ------|------ ------ ------ ------|
B|---------------------------|---------------------------|
G|---------------------------|---------------------------|
D|---------------------------|---------------------------|
A|2---2--2H4----2---2--2H4---|2---2--2H4----2---2--2H4---|
E|0---0--0---0--0---0--0---0-|0---0--0---0--0---0--0---0-|

e|------ ------ ------ ------|------ ------ ------ ------|
B|---------------------------|---------------------------|
G|---------------------------|---------------------------|
D|-------2---2---------2---2-|-------2---2---------2---2-|
A|-------2H4-2---------2H4-2-|-------2H4-2---------2H4-2-|
E|-------0---0------0--0---0-|----0--0---0------0--0---0-|





Bm
e|2----- ------ ------ ------|0----- ------ ------ ------|
B|3--------------------------|0--------------------------|
G|4--------------------------|1--------------------------|
D|4--------------------------|2--------------------------|
A|2--------------------------|2--------------------------|
E|2--------------------------|0--------------------------|
Butifyougocarryingpicturesofchairman Mao





Bm G5 A5 F#
e|2----- ------ ------ ------|------ ------ ------ ------|
B|3--------------------------|---------------------------|
G|4--------------------------|-----------3---------3-----|
D|4--------------------------|5---7------4---------4-----|
A|2--------------------------|5---7------4---------4-----|
E|2--------------------------|3---5------2---------2-----|
Youain'tgonnamakeitwithanyone anyhow
e|------ ------ ------ ------|------12----- --12-- ----12|
B|---------------------------|12B14----12B14-----12B14---|
G|---------------------------|---------------------------|
D|---------------------------|---------------------------|
A|---------------------------|---------------------------|
E|---------------------------|---------------------------|





E
e|------ ------|------ ------ ------ ------|
B|-------------|---------------------------|
G|3------3-----|1------1------1------1-----|
D|4------4-----|2------2------2------2-----|
A|4------4-----|2------2------2------2-----|
E|2------2-----|0------0------0------0-----|
Don't you know it's gonna be
e|------ 12----|---12- ------12----- --12--|
B|12B14-----12B14-----12B14-----12B14------|
G|-------------|---------------------------|
D|-------------|---------------------------|
A|-------------|---------------------------|
E|-------------|---------------------------|





A D
e|------ ------ ------ ------|------ ------ ------ ------|
B|---------------------------|---------------------------|
G|---------------------------|2---2--2H4----2---2--2H4---|
D|2---2--2H4----2---2--2H4---|0---0--0---0--0---0--0---0-|
A|0---0--0---0--0---0--0---0-|---------------------------|
E|---------------------------|---------------------------|
All....right
e|------ ------ ------ ------|------ ------ ------ ----9-|
B|---------------------------|-------------------------10|
G|-------9H119---------------|-------------------------9-|
D|-------7---7---------------|-------7H9-7--7---7--7H9---|
A|-------0---0---------------|-------5---5--5H9-5--5-----|
E|---------------------------|---------------------------|

e|------ ------ ------ ------|------ ------ ------ ------|
B12B13-12B13-12B13-12B13-12B13-12B13-12B13R12B13R12-10---|
G|---------------------------|-------------------------9-|
D|---------------------------|---------------------------|
A|---------------------------|---------------------------|
E|---------------------------|---------------------------|





A D
e|------ ------ ------ ------|------ ------ ------ ------|
B|---------------------------|---------------------------|
G|---------------------------|2---2--2H4----2---2--2H4---|
D|2---2--2H4----2---2--2H4---|0---0--0---0--0---0--0---0-|
A|0---0--0---0--0---0--0---0-|---------------------------|
E|---------------------------|---------------------------|
All....right
e|------ ------ ------ ------|------ ------ ------ ----9-|
B|---------------------------|-------------------------10|
G|----9--9H119---------------|-------------------------9-|
D|----7--7---7---------------|----7--7H9-7--7---7--7H9---|
A|----0--0---0---------------|----5--5---5--5H9-5--5-----|
E|---------------------------|---------------------------|





A D
e|------ ------ ------ ------|------ ------ ------ ------|
B|---------------------------|---------------------------|
G|---------------------------|2---2--2H4----2---2--2H4---|
D|2---2--2H4----2---2--2H4---|0---0--0---0--0---0--0---0-|
A|0---0--0---0--0---0--0---0-|---------------------------|
E|---------------------------|---------------------------|
All....right
e|------ ------ ------ ------|------ ------ ------ ------|
B|---------------------------|---------------------------|
G|----9--9H119---------------|------------------7--------|
D|----7--7---7---------------|----7--7H9-7--9---7--------|
A|----0--0---0---------------|----5--5---5--5---5--------|
E|---------------------------|---------------------------|






e|------ ------ ------ ------|------ ------ ------ ------|
B|---------------------------|---------------------------|
G|---------------------------|---------------------------|
D|-----------0--------------2|-----------0-------------0-|
A|-------0H2-----------2H4---|-------0H2-----------2H4---|
E|0---0-------------0--------|----0-------------0--------|
All right




A D
e|------ ------ ------ ------|------ ------ ------ ------|
B|---------------------------|---------------------------|
G|---------------------------|2---2--2H4----2---2--2H4---|
D|2---2--2H4----2---2--2H4---|0---0--0---0--0---0--0---0-|
A|0---0--0---0--0---0--0---0-|---------------------------|
E|---------------------------|---------------------------|
All....right All right
e|------ ------ ------ ------|------ ------ ------ ----9-|
B|---------------------------|-------------------------10|
G|-------9H119---------------|-------------------------9-|
D|-------7---7---------------|-------7H9-7--7---7--7H9---|
A|-------0---0---------------|-------5---5--5H9-5--5-----|
E|---------------------------|---------------------------|

e|------ ------ ------ ------|------ ------ ------ ------|
B|------------------121212121212121212---------1212121212|
G|---------------------------|---------------------------|
D|---------------------------|---------------------------|
A|---------------------------|---------------------------|
E|---------------------------|---------------------------|





A D
e|------ ------ ------ ------|------ ------ ------ ------|
B|---------------------------|---------------------------|
G|---------------------------|2---2--2H4----2---2--2H4---|
D|2---2--2H4----2---2--2H4---|0---0--0---0--0---0--0---0-|
A|0---0--0---0--0---0--0---0-|---------------------------|
E|---------------------------|---------------------------|
All....right All right
e|------ ------ ------ ------|------ ------ ------ ----9-|
B|---------------------------|-------------------------10|
G|----9--9H119---------------|-------------------------9-|
D|----7--7---7---------------|----7--7H9-7--7---7--7H9---|
A|----0--0---0---------------|----5--5---5--5H9-5--5-----|
E|---------------------------|---------------------------|

e|------ ------ ------ ------|------ ------ ------ ------|
B|12121212--------12121212121212121212--------121212121212
G|---------------------------|---------------------------|
D|---------------------------|---------------------------|
A|---------------------------|---------------------------|
E|---------------------------|---------------------------|






A D
e|------ ------ ------ ------|------ ------ ------ ------|
B|---------------------------|---------------------------|
G|---------------------------|2---2--2H4----2---2--2H4---|
D|2---2--2H4----2---2--2H4---|0---0--0---0--0---0--0---0-|
A|0---0--0---0--0---0--0---0-|---------------------------|
E|---------------------------|---------------------------|
All....right All right
e|------ ------ ------ ------|------ ------ ------ ------|
B|---------------------------|---------------------------|
G|----9--9H119---------------|------------------7--------|
D|----7--7---7---------------|----7--7H9-7--9---7--------|
A|----0--0---0---------------|----5--5---5--5---5--------|
E|---------------------------|---------------------------|

e|------ ------ ------ ------|------ ------ ------ ------|
B|12121212121212121212121212121212121212B1312B1312B1312B13
G|---------------------------|---------------------------|
D|---------------------------|---------------------------|
A|---------------------------|---------------------------|
E|---------------------------|---------------------------|





(.
E Bb7 A7
e|------ ------ ------ ------|------ ------ ------ ------|
B|---------------------------|---------------------------|
G|---------------------------|-------7---6---------------|
D|---------------------------|-------6---5---------------|
A|2---2--2H4----2---2--2H4---|2---2--8---7---------------|
E|0---0--0---0--0---0--0---0-|0---0--6---5---------------|
All right

e|------ ------ ------ ------|------ ------ ------ ------|
B|12B1312B1312B1312B13121212121212121212-----------------|
G|---------------------------|---------------------------|
D|---------------------------|---------------------------|
A|---------------------------|---------------------------|
E|---------------------------|---------------------------|










B Bend
R Release
/ slide up
\ slide down
H hammer-on
P pull-off
~ vibrato
+ harmonic
x Mute note
. Play note like a dot in standard notation
^ Ties two notes together
(. Pause

pjvill

Submitted by pjvill at Thu 15 Dec, 2005 9:50 am

Author: ?
Composer: ?
Publisher: ?
Language: English

Reactions

CommonCrawl [Bot]

Follow Muzikum