The Beatles

The Beatles
Rain Ver 2 (Guitar tab)

-----------------------------------------------------------------

THE BEATLES - RAIN (Lennon/McCartney) Released as the B side of
PAPERBACK WRITER single on 10th June 1966.


-----------------------------------------------------------------

Tabbed by:PJVillanueva






If the rain comes they run and hide their heads.
They might as well be dead.
If the rain comes, if the rain comes.

When the sun shines they slip into the shade
(When the sun shines down.)
And sip their lemonade.
(When the sun shines down.)
When the sun shines, when the sun shines.

Rain, I don't mind.
Shine, the weather's fine.

I can show you that when it starts to rain,
(When the Rain comes down.)
Everything's the same.
(When the Rain comes down.)
I can show you, I can show you.

Rain, I don't mind.
Shine, the weather's fine.

Can you hear me, that when it rains and shines,
(When it Rains and shines.)
It's just a state of mind?
(When it rains and shines.)
Can you hear me, can you hear me?
If the rain comes they run and hide their heads.
sdaeh rieht edih dna nur yeht semoc niar eht fI.
(Rain)
naiR.
(Rain)
enihsnuS.




x x x x x
e|------- ------- ------- -------|------- ------- ------- -------|
B|-------------------------------|-------------------------------|
G|-------------------------------|-------------------------------|
D|-------------------------------|-------------------------------|
A|-------------------------------|-------------------------------|
E|-------------------------------|-------------------------------|



G
e|------- ------- ------- -------|------- ------- ------- -------|
B|--------0---1-------0-------3--|--------1---0---------------0--|
G|0-------0---------------0------|0---0---------------0----------|
D|0-------0----------------------|0-------------------0----------|
A|2-------2----------------------|2-------------------2----------|
E|3-------3----------------------|3-------------------3----------|


(.

e|------- ------- ------- -------|------- ------- ------- -------|
B|--------0---1-------0----------|-------------------------------|
G|0-------0----------------------|0------------------------------|
D|0-------0----------------------|0------------------------------|
A|2-------2----------------------|2------------------------------|
E|3-------3----------------------|3------------------------------|
If the


Csus2
e|------- ------- ------- -------|------- ------- ------- -------|
B|0-------0---1-------0-------0--|1-------1-------3-------1---0--|
G|0-------0---------------0------|--------0---0------------------|
D|0-------0---------------0------|--------0---0------------------|
A|2-------2---------------2------|--------3---3------------------|
E|3-------3---------------3------|-------------------------------|
rain comes they run and hide their


G Csus2
e|------- ------- ------- -------|------- ------- ------- -------|
B|--------0-------0-------0---1--|--------1---3-----------1------|
G|0------0-------0--------0---0--|----0---0---0-----------0------|
D|0-----0-------0---------0---0--|--------0---0-----------0------|
A|2----2-------2----------2---3--|--------3---3-----------3------|
E|3---3-------3-----------3------|-------------------------------|
heads They might as well be


x x x x x X X
G Csus2
e|------- ------- ------- -------|------- ------- ------- -------|
B|0-----------0-----------0------|1-----------1-------1---1------|
G|0-------0-----------0---0------|0-----------0-------0---0------|
D|0-------0-----------0---0------|0-----------0-------0---0------|
A|2-------2-----------2---2------|3-----------3-------3---3------|
E|3-------3-----------3---3------|-------------------------------|
dead. If the rain comes


X X X x x x x x x x x
G
e|------- ------- ------- -------|------- ------- ------- -------|
B|----1-------1---1-------1------|0-------0---0-------0---0---0--|
G|----0-------0---0-------0------|0-------0---0-------0---0---0--|
D|----0-------0---0-------0------|0-------0---0-------0---0---0--|
A|----3-------3---3-------3------|2-------2---2-------2---2---2--|
E|-------------------------------|3-------3---3-------3---3---3--|
If the rain


x x x x X X X

e|------- ------- ------- -------|
B|----0-------0-------0----------|
G|----0-------0-------0----------0
D|----0-------0-------0---------0|
A|----2-------2-------2--------2-|
E|----3-------3-------3-------3--|
comes When the



Csus2
e|------- ------- ------- -------|------- ------- ------- -------|
B|0-------0-------0-------0---0--|1-------1-------3-------1------|
G|--------0-------0-------0---0--|0-------0-------0-------0------|
D|--------0-------0-------0---0--|0-------0-------0-------0------|
A|--------2-------2-------2---2--|3-------3-------3-------3------|
E|--------3-------3-------3---3--|-------------------------------|
sun shines they sleep into the shade


x x x x X X X
G Csus2
e|------- ------- ------- -------|------- ------- ------- -------|
B|0-------0---0-------0---0---0--|1-------1-------3-------1------|
G|0-------0---0-------0---0---0--|0-------0-------0-------0------|
D|0-------0---0-------0---0---0--|0-------0-------0-------0------|
A|2-------2---2-------2---2---2--|3-------3-------3-------3------|
E|3-------3---3-------3---3---3--|-------------------------------|
and sip their lemonade
(When the sun shines down.)


x x x x x X X
G Csus2
e|------- ------- ------- -------|------- ------- ------- -------|
B|0-------0---0-------0---0------|1-------1-----------1----------|
G|0-------0---0-------0---0------|0-------0-----------0-------0--|
D|0-------0---0-------0---0------|0-------0-----------0-------0--|
A|2-------2---2-------2---2------|3-------3-----------3-------3--|
E|3-------3---3-------3---3------|-------------------------------|
When the sun shines
(When the sun shines down.)



X X X x x x x x x x x x x x x x x X X X
G
e|------- ------- ------- -------|------- -------|
B|----1---------------1----------|0-------0------|
G|----0-------0-------0---0------|0-------0------|
D|----0-------0-------0---0------|0-------0------|
A|----3-------3-------3---3------|2-------2------|
E|-------------------------------|3-------3------|
When the sun




e|------- ------- ------- -------|------- ------- ------- -------|
B|0-------0---0-------0-------0--|0-------0-----------0----------|
G|0-------0---0-------0-------0--|0-------0-----------0---0------|
D|0-------0---0-------0-------0--|0-------0-----------0---0------|
A|2-------2---2-------2-------2--|2-------2-----------2----------|
E|3-------3---3-------3-------3--|3-------3-----------3----------|
shines




e|------- ------- ------- -------|------- ------- ------- -------|
B|0---------------0--------------|0---------------0--------------|
G|0---------------0--------------|0---------------0--------------|
D|0---------------0--------------|0---------------0--------------|
A|2---------------2--------------|2---------------2--------------|
E|3---------------3--------------|3---------------3--------------|
Rain


Csus2
e|------- ------- ------- -------|------- ------- ------- -------|
B|3---------------3--------------|3-------3---------------3------|
G|0---------------0--------------|0-----------0---0-------0------|
D|0---------------0--------------|0---------------0--------------|
A|3---------------3--------------|3---------------3--------------|
E|3---------------3--------------|3------------------------------|
I don't mind


G
e|------- ------- ------- -------|------- ------- ------- -------|
B|0-------0---------------0---1--|--------0---------------0------|
G|0-------0-----------0---0---0--|----0---0-------0-------0------|
D|0-------0-----------0---0---0--|----0---0-------0-------0------|
A|2-------2-----------2---2---2--|----2---2-------2-------2------|
E|3-------3-----------3---3---3--|----3---3-------3-------3------|




e|------- ------- ------- -------|------- ------- ------- -------|
B|0---------------0--------------|0---------------0--------------|
G|0---------------0--------------|0---------------0--------------|
D|0---------------0--------------|0---------------0--------------|
A|2---------------2--------------|2---------------2--------------|
E|3---------------3--------------|3---------------3--------------|
Shine


Csus2
e|------- ------- ------- -------|------- ------- ------- -------|
B|3---------------3--------------|3---3-----------3---3----------|
G|0---------------0--------------|0---0-----------0---0----------|
D|0---------------0--------------|0---------------0--------------|
A|3---------------3--------------|3---------------3--------------|
E|3---------------3--------------|3---------------3--------------|
the weather's fine.


G
e|------- ------- ------- -------|------- ------- ------- -------|
B|0-------0-------1---0-------0--|------------3-----------1---0--|
G|0-------0-------0---0---0---0--|----0-------0-------0---0---0--|
D|0-------0-------0---0---0---0--|----0-------0-------0---0---0--|
A|2-------2-------2-------2------|----2-------2-------2---2------|
E|3-------3-------3-------3------|----3-------3-------3---3------|
I can


Csus2 D7sus4 Csus2
e|------- ------- ------- -------|------- ------- ------- -------|
B|0-------0-------1---0-------1--|--------1-------3-------1------|
G|0-------0-------0---0---0---0--|--------0-------0-------0------|
D|0-------0-------0---0---0---0--|--------0-------0-------0------|
A|2-------2-------2-------2---3--|--------3-------3-------3------|
E|3-------3-------3-------3------|-------------------------------|
show you that when it starts to


G Csus2 D7sus4 G
e|------- ------- ------- -------|------- ------- ------- -------|
B|0-------0-----------0---0---1--|--------1---1---3-----------0--|
G|0-------0-----------0---0---0--|--------0---0---0-----------0--|
D|0-------0-----------0---0---0--|--------0---0---0-----------0--|
A|2-------2-----------2---2---3--|--------3---3---3-----------2--|
E|3-------3-----------3---3------|----------------------------3--|
rain Everything's the
(When the rain comes down)

Csus2
e|------- ------- ------- -------|------- ------- ------- -------|
B|--------0-----------0-------0--|1-------1---------------3---1--|
G|--------0-----------0-------0--|0-------0-----------0-------0--|
D|--------0-----------0-------0--|0-------0-------------------0--|
A|--------2-----------2-------2--|3-------3-------------------3--|
E|--------3-----------3-------3--|-------------------------------|
same. I can show you
(When the rain comes down)

D7sus4 G
e|------- ------- ------- -------|------- ------- ------- -------|
B|--------3-------1-------3------|0-------0-----------0----------|
G|----0-------0---0---0---0------|0-------0-----------0----------|
D|----------------0-------0------|0-------0-----------0----------|
A|----------------3-------3------|2-------2-----------2----------|
E|-------------------------------|3-------3-----------3----------|
I can show
(Show


e|------- ------- ------- -------|
B|0-------0---0-------0---0------|
G|0-------0---0-------0---0------|
D|0-------0---0-------0---0------|
A|2-------2---2-------2---2------|
E|3-------3---3-------3---3------|
you
you)



e|------- ------- ------- -------|------- ------- ------- -------|
B|0---------------0--------------|0---------------0--------------|
G|0---------------0--------------|0---------------0--------------|
D|0---------------0--------------|0---------------0--------------|
A|2---------------2--------------|2---------------2--------------|
E|3---------------3--------------|3---------------3--------------|
Rain


Csus2
e|------- ------- ------- -------|------- ------- ------- -------|
B|3---------------3--------------|3-------3-------3-------3------|
G|0---------------0--------------|0---------------0--------------|
D|0---------------0--------------|0---------------0--------------|
A|3---------------3--------------|3---------------3--------------|
E|3---------------3--------------|3---------------3--------------|
I don't mind


G Gsus4 G
e|------- ------- ------- -------|------- ------- ------- -------|
B|0-------0-------1-P-0----------|0-------3-------1-P-0----------|
G|0-------0-------0-------0------0----0---0-------0-------0------|
D|0-------0-------0-------0-----0|--------0-------0-------0------|
A|2-------2-------2-------2----2-|--------2---------------2------|
E|3-------3-------3-------3---3--|--------3---------------3------|




e|------- ------- ------- -------|------- ------- ------- -------|
B|0---------------0--------------|0---------------0--------------|
G|0---------------0--------------|0---------------0--------------|
D|0---------------0--------------|0---------------0--------------|
A|2---------------2--------------|2---------------2--------------|
E|3---------------3--------------|3---------------3--------------|
Shine


Csus2
e|------- ------- ------- -------|------- ------- ------- -------|
B|3---------------3--------------|3---3-----------3---3----------|
G|0---------------0--------------|0---0-----------0---0----------|
D|0---------------0--------------|0---------------0--------------|
A|3---------------3--------------|3---------------3--------------|
E|3---------------3--------------|3------------------------------|
the weather's fine.


G Gsus4 G Gsus4 G
e|------- ------- ------- -------|------- ------- ------- -------|
B|0-------0-------1---0-------3--|--------1-------0--------------|
G|0-------0-------0---0---0------|----0---0-------0-------0------|
D|0-------0-------0---0---0------|----0---0-------0-------0------|
A|2-------2-------2-------2------|----2---2-------2-------2------|
E|3-------3-------3-------3------|----3---3-------3-------3------|
Can you


Gsus4 G D7sus4 Csus2 Cmaj9 Csus2
e|------- ------- ------- -------|------- ----0-- ------- -------|
B|0-------0-------1---0---3------|3-------1-------0-------1------|
G|0-------0-------0-------0------|0-------0-------0-------0------|
D|0-------0-------0-------0------|0-------0-------0-------0------|
A|2-------2-------2-------2------|3-------3-------3-------3------|
E|3-------3-------3-------3------|-------------------------------|
hear me that when it rains and


G Csus2 Cmaj9 Csus2
e|------- ------- ------- -------|------- ------- ------- -------|
B|0-------0-------0-------0---1--|----0-----------0-------1------|
G|0-------0-------0-------0---0--|----0-------0---0-------0------|
D|0-------0-------0-------0---0--|----0-----------0-------0------|
A|2-------2-------2-------2---3--|----------------3-------3------|
E|3-------3-------3-------3------|-------------------------------|
shines It's just a state of
(When it rains and shines.)

G Gsus4 G Csus2 D7sus4 Csus2 D7sus4
e|------- ------- ------- -------|------- ------- ------- -------|
B|0-------0-------1-P-0---0------|1-------1-------3-------1---3--|
G|0-------0-------0-------0------0--------0-------0-------0---0--|
D|0-------0-------0-------0-----0|--------0-------0-------0---0--|
A|2-------2-------2-------2----3-|--------3-------3-------3---3--|
E|3-------3-------3-------3------|-------------------------------|
mind? Can you hear me,
(When it rains and shines.)


Csus2 D7sus4 Csus2 D7sus4 G
e|------- ------- ------- -------|------- ------- ------- -------|
B|----1---3-------1---3----------|0-------0-----------0---0------|
G|----0---0-------0---0----------|0-------0-----------0---0------|
D|----0---0-------0---0----------|0-------0-----------0---0------|
A|----3---3-------3---3----------|2-------2-----------2---2------|
E|-------------------------------|3-------3-----------3---3------|
can you hear
(Hear

X X x x x X

e|------- ------- ------- -------|------- ------- ------- -------|
B|0---0---0---0---3-------0------|3------------------------------|
G|0---0---0---0---0-------0------0-------------------------------|
D|0---0---0---0---0-------0-----0|-------------------------------|
A|2---2---2---2---2-------2----2-|-------------------------------|
E|3---3---3---3---3-------3---3--|-------------------------------|
me?
me?)

x x x x x x x x x X X X

e|------- ------- ------- -------|------- ------- ------- -------|
B|-------------------------------|-------------------------------|
G|-------------------------------|-------------------------------|
D|-------------------------------|-------------------------------|
A|-------------------------------|-------------------------------|
E|-------------------------------|-------------------------------|



Gsus4 G
e|------- ------- ------- -------|------- ------- ------- -------|
B|-------------------------------|----0-------1-------0----------|
G|----------------------------0--|----0-------0-------0---0------|
D|0-------0-------0---0---0---0--|----0-------0-------0---0------|
A|2-------2-------2---2---2---2--|----2-------2-------2---2------|
E|3-------3-------3---3---3---3--|----3-------3-------3---3------|



Gsus4 G
e|------- ------- ------- -------|------- ------- ------- -------|
B|----------------------------0--|----0-------1-------0----------|
G|------------------------0---0--|----0-------0-------0----------|
D|--------------------0---0---0--|----0-------0-------0----------|
A|2-------2-------2---2---2---2--|----2-------2-------2----------|
E|3-------3-------3---3---3---3--|----3-------3-------3----------|
sdaeh rieht edih dna nur yeht semoc niar


Gsus4 G
e|------- ------- ------- -------|------- ------- ------- -------|
B|-------------------------------|----0-------1-------0----------|
G|----------------------------0--|----0-------0-------0---0------|
D|0-------0-------0---0---0---0--|----0-------0-------0---0------|
A|2-------2-------2---2---2---2--|----2-------2-------2---2------|
E|3-------3-------3---3---3---3--|----3-------3-------3---3------|
eht fI.
(Rain)

Gsus4 G
e|------- ------- ------- -------|------- ------- ------- -------|
B|----------------------------0--|----1-------0------------------|
G|------------------------0---0--|----0-------0-------0----------|
D|--------------------0---0---0--|----0-------0-------0----------|
A|2-------2-------2---2---2---2--|----2-------2-------2----------|
E|3-------3-------3---3---3---3--|----3-------3-------3--3-------|
naiR.



Gsus4 G Gsus4 G
e|------- ------- ------- -------|------- ------- ------- -------|
B|----------------------------0--|----1-------3-------1---0------|
G|------------------------0---0--|----0-------0-------0---0------|
D|0-------0-------0---0---0---0--|----0-------0-------0---0------|
A|2-------2-------2---2---2---2--|----2-------2-------2---2------|
E|3-------3-------3---3---3---3--|----3-------3-------3---3------|

(Rain)
............................ Fade out ...........................

Gsus4 G Gsus4 G
e|------- ------- ------- -------|------- ------- ------- -------|
B|--------------------0-------1--|------------3-------1---0------|
G|0-------0-----------0-------0--|------------0-------0---0------|
D|0-------0-----------0-------0--|------------0-------0---0------|
A|2-------2-----------2-------2--|------------2-------2---2------|
E|3-------3-----------3-------3--|------------3-------3---3------|
enihsnuS
...............................................






B Bend
R Release
/ slide up
\ slide down
H hammer-on
P pull-off
~ vibrato
+ harmonic
x Mute note
. - play note like a dot in standard notation
^ - ties two notes together
(. Pause

pjvill

Submitted by pjvill at Thu 15 Dec, 2005 9:50 am

Author: ?
Composer: ?
Publisher: ?
Language: English

Reactions

CommonCrawl [Bot]

Follow Muzikum