The Beatles

The Beatles
Polythene Pam Ver 2 (Guitar tab)

---------------------------------------------------------------------
THE BEATLES - POLYTHENE PAM (Lennon/McCartney) From ABBEY ROAD
album. Released on 26th September 1969.

---------------------------------------------------------------------

Tabbed by:PJVillanueva






It looks that POLYTHENE PAM and SHE CAME IN THROUGH THE BATHROOM WINDOW
were rehearsed together and finally cut from the same take. Both are
linked by four descending bars in E Major as a introductory dominant to
A Major, which is the main key for the second one. I have included those
four measures here at the end of POLYTHENE PAM because it makes much more
sense this way than the way it is presented on the CD, as if this brief
transition belonged to the second song - SHE CAME IN THROUGH THE BATHROOM
WINDOW.





Well, you should see Polythene Pam,
She's so good looking but she looks like a man.
Well, you should see her in drag, dressed in her polythene bag.
Yes you should see Polythene Pam.
Yeah, yeah, yeah.

Get a dose of her in jackboot and kilt,
She's killer-diller when she's dressed to the hilt.
She's the kind of a girl that makes the News Of The World,
Yes, you could say she was attractively built.
Yeah, yeah, yeah.





D A E
e|2------ ------- 0------ -------|0------ ------- ------- -------|
B|3---------------2--------------|0------------------------------|
G|2---------------2--------------|1------------------------------|
D|0---------------2--------------|2------------------------------|
A|0---------------0--------------|2------------------------------|
E|-------------------------------|0------------------------------|

e|------- ------- ------- -------|--/-7-- 7---7-- 7-\---- -------|
B|-------------------------------|--/-9---9---9---9-\------------|
G|-------------------------------|--/-9---9---9---9-\------------|
D|-------------------------------|-------------------------------|
A|-------------------------------|-------------------------------|
E|-------------------------------|-------------------------------|



D A E
e|2------ ------- 0------ -------|0------ ------- ------- -------|
B|3---------------2--------------|0------------------------------|
G|2---------------2--------------|1------------------------------|
D|0---------------2--------------|2------------------------------|
A|0---------------0--------------|2------------------------------|
E|-------------------------------|0------------------------------|
Well, you should
e|------- ------- ------- -------|--/-7-- 7---7-- 7-\---- -------|
B|-------------------------------|--/-9---9---9---9-\------------|
G|-------------------------------|--/-9---9---9---9-\------------|
D|-------------------------------|-------------------------------|
A|-------------------------------|-------------------------------|
E|-------------------------------|-------------------------------|



D A E
e|2------ ------- 0------ -------|----0-- 0------ 0------ -------|
B|3---------------2--------------|----0---0-------0--------------|
G|2---------------2--------------|----1---1-------1--------------|
D|0---------------2--------------|----2---2-------2--------------|
A|0---------------0--------------|----2---2-------2--------------|
E|-------------------------------|----0---0-------0--------------|
see Polythene Pam, She's so good
e|------- ------- ------- -------|----7\- /7----- ------- -------|
B|-------------------------------|----9\--/9---------------------|
G|-------------------------------|----9\--/9---------------------|
D|-------------------------------|-------------------------------|
A|-------------------------------|-------------------------------|
E|-------------------------------|-------------------------------|



D A E
e|2---2-- 2---2-- 0---0-- 0---0--|0---0-- 0------ 0------ -------|
B|3---3---3---3---2---2---2---0--|0---0---0-------0--------------|
G|2---2---2---2---2---2---2---1--|1---1---1-------1--------------|
D|0---0---0---0---2---2---2---2--|2---2---2-------2--------------|
A|0---0---0---0---0---0---0---2--|2---2---2-------2--------------|
E|----------------------------0--|0---0---0-------0--------------|
looking but she looks like a man. Well, you should
(Aaaaaaaaaaaaaaaaaaaaaaaaaaaaaaahh)
e|------- ------- ------- -------|----7\- --/7--- ------- -------|
B|-------------------------------|----9\----/9-------------------|
G|-------------------------------|----9\----/9-------------------|
D|-------------------------------|-------------------------------|
A|-------------------------------|-------------------------------|
E|-------------------------------|-------------------------------|



G B
e|3---3-- 3---3-- ----3-- ----3--|2---2-- 2---2-- ----2-- 2---2--|
B|3---3---3---3-------3-------3--|4---4---4---4-------4---4---4--|
G|0---0---0---0-------0-------0--|4---4---4---4-------4---4---4--|
D|0---0---0---0-------0-------0--|4---4---4---4-------4---4---4--|
A|2---2---2---2-------2-------2--|2---2---2---2-------2---2---2--|
E|3---3---3---3-------3-------3--|-------------------------------|
see her in drag, dressed in her polythene bag. Yes you should
(Aaaaaaaaaaaaaaaaaaaaaaaaaaaaaaaaaaaaaaaaaaaaaaaaaaaaaaaaaaaaaaa


C D E
e|0------ 0------ 2---2-- 2---0--|----0-- 0------ 0------ -------|
B|1-------1-------3---3---3---0--|----0---0-------0--------------|
G|0-------0-------2---2---2---1--|----1---1-------1--------------|
D|2-------2-------0---0---0---2--|----2---2-------2--------------|
A|3-------3-------0---0---0---2--|----2---2-------2--------------|
E|3-------3-------------------0--|----0---0-------0--------------|
see Polythene Pam.
aaaaaaaaaaaaaaaaaaaaaaaaaaaaaaaaaaaahhh)
e|------- ------- ------- -------|----7-- 7------ 7-\---- -------|
B|-------------------------------|----9---9-------9-\------------|
G|-------------------------------|----9---9-------9-\------------|
D|-------------------------------|-------------------------------|
A|-------------------------------|-------------------------------|
E|-------------------------------|-------------------------------|



C D E
e|0---0-- 0---2-- 2---2-- 2---0--|----0-- 0------ 0------ -------|
B|1---1---1---3---3---3---3---0--|----0---0-------0--------------|
G|0---0---0---2---2---2---2---1--|----1---1-------1--------------|
D|2---2---2---0---0---0---0---2--|----2---2-------2--------------|
A|3---3---3---0---0---0---0---2--|----2---2-------2--------------|
E|3---3---3-------------------0--|----0---0-------0--------------|
Yeah, yeah, yeah.
(Yeah, yeah, yeah.)
e|------- ------- ------- -------|---/7-- 7------ 7-\---- -------|
B|-------------------------------|---/9---9-------9-\------------|
G|-------------------------------|---/9---9-------9-\------------|
D|-------------------------------|-------------------------------|
A|-------------------------------|-------------------------------|
E|-------------------------------|-------------------------------|



D A E
e|2------ ------- 0------ -------|0------ ------- ------- -------|
B|3---------------2--------------|0------------------------------|
G|2---------------2--------------|1------------------------------|
D|0---------------2--------------|2------------------------------|
A|0---------------0--------------|2------------------------------|
E|-------------------------------|0------------------------------|

e|------- ------- ------- -------|------- ------- ------- -------|
B|-------------------------------|----9---9---9---9-\------------|
G|-------------------------------|----9---9---9---9-\------------|
D|-------------------------------|----9---9---9---9-\----------/-|
A|-------------------------------|-------------------------------|
E|-------------------------------|-------------------------------|



D A E
e|2------ ------- 0------ -------|0------ ------- ------- -------|
B|3---------------2--------------|0------------------------------|
G|2---------------2--------------|1------------------------------|
D|0---------------2--------------|2------------------------------|
A|0---------------0--------------|2------------------------------|
E|-------------------------------|0------------------------------|
Get a
e|------- ------- ------- -------|----7-- 7---7-- 7-\---- -------|
B|-------------------------------|----9---9---9---9-\------------|
G|-------------------------------|----9---9---9---9-\------------|
D|9------------------------------|----9---9---9---9-\------------|
A|-------------------------------|-------------------------------|
E|-------------------------------|-------------------------------|



D A E
e|2------ 2---2-- 0---0-- 0---0--|----0-- 0------ 0------ -------|
B|3-------3---3---2---2---2---0--|----0---0-------0--------------|
G|2-------2---2---2---2---2---1--|----1---1-------1--------------|
D|0-------0---0---2---2---2---2--|----2---2-------2--------------|
A|0-------0---0---0---0---0---2--|----2---2-------2--------------|
E|----------------------------0--|----0---0-------0--------------|
dose of her in jackboot and kilt, She's killer-
e|------- ------- ------- -------|---/7-- -------/7\----- -------|
B|-------------------------------|---/9----------/9\-------------|
G|-------------------------------|---/9----------/9\-------------|
D|-------------------------------|-------------------------------|
A|-------------------------------|-------------------------------|
E|-------------------------------|-------------------------------|



D A E
e|2---2-- 2---2-- 0------ 0---0--|----0-- 0------ 0------ -------|
B|3---3---3---3---2-------2---0--|----0---0-------0--------------|
G|2---2---2---2---2-------2---1--|----1---1-------1--------------|
D|0---0---0---0---2-------2---2--|----2---2-------2--------------|
A|0---0---0---0---0-------0---2--|----2---2-------2--------------|
E|----------------------------0--|----0---0-------0--------------|
diller when she's dressed She's the
to the hilt.
(Aaaaaaaaaaaaaaaaaaaaaaaaaaaaaaahh)
e|------- ------- ------- -------|---/7-- -------/7\----- -------|
B|-------------------------------|---/9----------/9\-------------|
G|-------------------------------|---/9----------/9\-------------|
D|-------------------------------|-------------------------------|
A|-------------------------------|-------------------------------|
E|-------------------------------|-------------------------------|



G B
e|3------ 3---3-- ----3-- 3------|2---2-- 2---2-- ----2-- 2---2--|
B|3-------3---3-------3---3------|4---4---4---4-------4---4---4--|
G|0-------0---0-------0---0------|4---4---4---4-------4---4---4--|
D|0-------0---0-------0---0------|4---4---4---4-------4---4---4--|
A|2-------2---2-------2---2------|2---2---2---2-------2---2---2--|
E|3-------3---3-------3---3------|-------------------------------|
kind of a girl that makes the News Of The World, Yes, you could
(Aaaaaaaaaaaaaaaaaaaaaaaaaaaaaaaaaaaaaaaaaaaaaaaaaaaaaaaaaaaaaaa


C D E
e|0------ 0---0-- 2---2-- 2---0--|0---0-- 0------ 0------ -------|
B|1-------1---1---3---3---3---0--|0---0---0-------0--------------|
G|0-------0---0---2---2---2---1--|1---1---1-------1--------------|
D|2-------2---2---0---0---0---2--|2---2---2-------2--------------|
A|3-------3---3---0---0---0---2--|2---2---2-------2--------------|
E|3-------3---3---------------0--|0---0---0-------0--------------|
say she was attractively built.
aaaaaaaaaaaaaaaaaaaaaaaaaaaaaaaaaaaahhh)
e|------- ------- ------- -------|---/7-- 7---7-- 7\----- -------|
B|-------------------------------|---/9---9---9---9\-------------|
G|-------------------------------|---/9---9---9---9\-------------|
D|-------------------------------|-------------------------------|
A|-------------------------------|-------------------------------|
E|-------------------------------|-------------------------------|



C D E
e|0---0-- 0------ 2---2-- 2---0--|----0-- 0------ 0------ -------|
B|1---1---1-------3---3---3---0--|----0---0-------0--------------|
G|0---0---0-------2---2---2---1--|----1---1-------1--------------|
D|2---2---2-------0---0---0---2--|----2---2-------2--------------|
A|3---3---3-------0---0---0---2--|----2---2-------2--------------|
E|3---3---3-------------------0--|----0---0-------0--------------|
Yeah, yeah, yeah.
(Yeah, yeah, yeah.)
e|------- ------- ------- -------|---/7-- 7---7-- 7\----- -------|
B|-------------------------------|---/9---9---9---9\-------------|
G|-------------------------------|---/9---9---9---9\-------------|
D|-------------------------------|-------------------------------|
A|-------------------------------|-------------------------------|
E|-------------------------------|-------------------------------|



D A E
e|2------ ------- 0------ -------|0------ ------- ------- -------|
B|3---------------2--------------|0------------------------------|
G|2---------------2--------------|1------------------------------|
D|0---------------2--------------|2------------------------------|
A|0---------------0--------------|2------------------------------|
E|-------------------------------|0------------------------------|

e|------- ------- ------- -------|---/7-- 7---7-- 7\----- -------|
B|-------------------------------|---/9---9---9---9\-------------|
G|-------------------------------|---/9---9---9---9\-------------|
D|-------------------------------|-------------------------------|
A|-------------------------------|-------------------------------|
E|-------------------------------|-------------------------------|



D A E
e|2------ ------- 0------ -------|0------ ------- ------- -------|
B|3---------------2--------------|0------------------------------|
G|2---------------2--------------|1------------------------------|
D|0---------------2--------------|2------------------------------|
A|0---------------0--------------|2------------------------------|
E|-------------------------------|0------------------------------|

e|------- ------- ------- -------|---/7-- 7---7-- 7\----- -------|
B|-------------------------------|---/9---9---9---9\-------------|
G|-------------------------------|---/9---9---9---9\-------------|
D|-------------------------------|-------------------------------|
A|-------------------------------|-------------------------------|
E|-------------------------------|-------------------------------|



x x x x x x x ....
D A E
e|2------ 2---0-- 0---0-- 0---0--|----0-- 0------ 0------ -------|
B|3-------3---2---2---2---2---0--|----0---0-------0--------------|
G|2-------2---2---2---2---2---1--|----1---1-------1--------------|
D|0-------0---2---2---2---2---2--|----2---2-------2--------------|
A|0-------0---0---0---0---0---2--|----2---2-------2--------------|
E|----------------------------0--|----0---0-------0--------------|

e|------- ------- ------- -------|------- ------- ------- -------|
B|-------------------------------|--------------------5-H-8------|
G|-------------------------------|------------4-H-7--------------|
D|-------------------------------|-------------------------------|
A|-------------------------------|-------------------------------|
E|-------------------------------|-------------------------------|




D A E
e|2------ 2------ 0------ 0---0--|----0-- 0---0-- 0------ -------|
B|3-------3-------2-------2---0--|----0---0---0---0--------------|
G|2-------2-------2-------2---1--|----1---1---1---1--------------|
D|0-------0-------2-------2---2--|----2---2---2---2--------------|
A|0-------0-------0-------0---2--|----2---2---2---2--------------|
E|----------------------------0--|----0---0---0---0--------------|

e|------- ------- ------- -------|------- ------- ------- -------|
B|8B10R8B10-~-------------5H8P5--|--------------------5-------8--|
G|-------------------------------|7------------------------------|
D|-------------------------------|-------------------------------|
A|-------------------------------|-------------------------------|
E|-------------------------------|-------------------------------|




D A E
e|2------ 2------ 0---0-- 0---0--|----0-- 0---0-- 0------ -------|
B|3-------3-------2---2---2---0--|----0---0---0---0--------------|
G|2-------2-------2---2---2---1--|----1---1---1---1--------------|
D|0-------0-------2---2---2---2--|----2---2---2---2--------------|
A|0-------0-------0---0---0---2--|----2---2---2---2--------------|
E|----------------------------0--|----0---0---0---0--------------|

e|------- ------- ------- -------|------- ------- ------- -------|
B|8-B-10----------8B10R8--5------|5-----------------------5---8--|
G|-------------------------------|--------------------7----------|
D|-------------------------------|-------------------------------|
A|-------------------------------|-------------------------------|
E|-------------------------------|-------------------------------|




D A E
e|2---2-- 2------ 0---0-- 0---0--|----0-- 0---0-- 0------ -------|
B|3---3---3-------2---2---2---0--|----0---0---0---0--------------|
G|2---2---2-------2---2---2---1--|----1---1---1---1--------------|
D|0---0---0-------2---2---2---2--|----2---2---2---2--------------|
A|0---0---0-------0---0---0---2--|----2---2---2---2--------------|
E|----------------------------0--|----0---0---0---0--------------|

e|------- ------- ------- -------|------- ------- ------- -------|
B|8-B-10----------10-R-8--5------|5-------------------8-------10-|
G|-------------------------------|--------7H9P7---9--------------|
D|-------------------------------|-------------------------------|
A|-------------------------------|-------------------------------|
E|-------------------------------|-------------------------------|




D A E
e|2------ 2---2-- 0---0-- 0---0--|----0-- 0---0-- 0---0-- -------|
B|3-------3---3---2---2---2---0--|----0---0---0---0---0----------|
G|2-------2---2---2---2---2---1--|----1---1---1---1---1----------|
D|0-------0---0---2---2---2---2--|----2---2---2---2---2----------|
A|0-------0---0---0---0---0---2--|----2---2---2---2---2----------|
E|----------------------------0--|----0---0---0---0---0----------|

e|------- ------- ------- ----12-|------- ------- ------- -------|
B|12B14---12--12--12--10--8H10---|------------------------8---10-|
G|-------------------------------|-------------------------------|
D|-------------------------------|-------------------------------|
A|-------------------------------|-------------------------------|
E|-------------------------------|-------------------------------|




D A E
e|2------ 2---2-- 0---0-- 0---0--|----0-- 0---0-- 0------ -------|
B|3-------3---3---2---2---2---0--|----0---0---0---0--------------|
G|2-------2---2---2---2---2---1--|----1---1---1---1--------------|
D|0-------0---0---2---2---2---2--|----2---2---2---2--------------|
A|0-------0---0---0---0---0---2--|----2---2---2---2--------------|
E|----------------------------0--|----0---0---0---0--------------|

e|------- ------- ------- -------|------- ------- ------- -------|
B|10B12-----------10-B-12-----R--|10--8-------------------8---10-|
G|-------------------------------|--------------------9----------|
D|-------------------------------|-------------------------------|
A|-------------------------------|-------------------------------|
E|-------------------------------|-------------------------------|




D A E
e|2---2-- 2---2-- 0---0-- 0---0--|----0-- 0---0-- 0------ -------|
B|3---3---3---3---2---2---2---0--|----0---0---0---0--------------|
G|2---2---2---2---2---2---2---1--|----1---1---1---1--------------|
D|0---0---0---0---2---2---2---2--|----2---2---2---2--------------|
A|0---0---0---0---0---0---0---2--|----2---2---2---2--------------|
E|----------------------------0--|----0---0---0---0--------------|

e|------- ------- ------- -------|------- ------- ------- -------|
B|10B12-------10B12---10--8------|8-----------------------8---10-|
G|-------------------------------|--------------------9----------|
D|-------------------------------|-------------------------------|
A|-------------------------------|-------------------------------|
E|-------------------------------|-------------------------------|




D A E
e|2---2-- 2---2-- 0---0-- 0---0--|----0-- 0---0-- 0------ -------|
B|3---3---3---3---2---2---2---0--|----0---0---0---0--------------|
G|2---2---2---2---2---2---2---1--|----1---1---1---1--------------|
D|0---0---0---0---2---2---2---2--|----2---2---2---2--------------|
A|0---0---0---0---0---0---0---2--|----2---2---2---2--------------|
E|----------------------------0--|----0---0---0---0--------------|

e|------- ------- ------- -------|------- ------- ------- -------|
B|10B12-~------R--10--8-------8--|----8B10----8---------------8--|
G|------------------------9------|-------------------------------|
D|-------------------------------|-------------------------------|
A|-------------------------------|-------------------------------|
E|-------------------------------|-------------------------------|




E
e|0---0-- 0---0-- 0---0-- 0---0--|0---0-- 0---0-- 0---0-- 0---0--|
B|0---0---0---0---0---0---0---0--|0---0---0---0---0---0---0---0--|
G|1---1---1---1---1---1---1---1--|1---1---1---1---1---1---1---1--|
D|2---2---2---2---2---2---2---2--|2---2---2---2---2---2---2---2--|
A|2---2---2---2---2---2---2---2--|2---2---2---2---2---2---2---2--|
E|0---0---0---0---0---0---0---0--|0---0---0---0---0---0---0---0--|

e|------- ------- ------- -------|------- ------- ------- -------|
B|10B12---10B12--10B12R10-8------|-------------------------------|
G|---------------------------9---|--------7---4------------------|
D|-------------------------------|----------------7--P5H7-5------|
A|-------------------------------|-------------------------------|
E|-------------------------------|-------------------------------|





E
e|0---0-- 0---0-- 0---0-- 0---0--|0---0-- 0---0-- 0---0-- 0---0--|
B|0---0---0---0---0---0---0---0--|0---0---0---0---0---0---0---0--|
G|1---1---1---1---1---1---1---1--|1---1---1---1---1---1---1---1--|
D|2---2---2---2---2---2---2---2--|2---2---2---2---2---2---2---2--|
A|2---2---2---2---2---2---2---2--|2---2---2---2---2---2---2---2--|
E|0---0---0---0---0---0---0---0--|0---0---0---0---0---0---0---0--|

e|------- ------- ------- -------|------- ------- ------- -------|
B|-------------------------------|-------------------------------|
G|-------------------------------|-------------------------------|
D|-------------------------------|-------------------------------|
A|7------------------------------|5------------------------------|
E|-------------------------------|-------------------------------|





e|0---0-- 0---0-- 0---0-- 0---0--|0---0-- 0---0-- 0---0-- 0---0--|
B|0---0---0---0---0---0---0---0--|0---0---0---0---0---0---0---0--|
G|1---1---1---1---1---1---1---1--|1---1---1---1---1---1---1---1--|
D|2---2---2---2---2---2---2---2--|2---2---2---2---2---2---2---2--|
A|2---2---2---2---2---2---2---2--|2---2---2---2---2---2---2---2--|
E|0---0---0---0---0---0---0---0--|0---0---0---0---0---0---0---0--|
Oh, look out!
e|------- ------- ------- -------|------- ------- ------- -------|
B|-------------------------------|-------------------------------|
G|-------------------------------|-------------------------------|
D|-------------------------------|-------------------------------|
A|4------------------------------|-------------------------------|
E|-------------------------------|7------------------------------| ....








B Bend
R Release
/ Slide up
\ Slide down
H Hammer-on
P Pull-off
~ Vibrato
+ Harmonic
x Mute note
. Play note like a dot in standard notation
^ Ties two notes together
(. Pause

pjvill

Submitted by pjvill at Thu 15 Dec, 2005 9:49 am

Author: ?
Composer: ?
Publisher: ?
Language: English

Reactions

CommonCrawl [Bot]

Follow Muzikum