The Beatles

The Beatles
Paperback Writer Ver 2 (Guitar tab)

------------------------------------------------------------------
THE BEATLES - PAPERBACK WRITER (Lennon/McCartney) Released as a
single with RAIN as B side on 10th June 1966.

------------------------------------------------------------------

Tabbed by:PJVillanueva






Paperback writer, paperback writer.
Dear Sir or Madam, will you read my book?
It took me years to write, will you take a look?
It's based on a novel by a man named Lear,
And I need a job,
So I want to be a paperback writer,
Paperback writer.
It's a dirty story of a dirty man,
And his clinging wife doesn't understand.
His son is working for the Daily Mail.
It's a steady job,
But he wants to be a paperback writer,
Paperback writer.
Paperback writer, paperback writer.
It's a thousand pages, give or take a few.
I'll be writing more in a week or two.
I could make it longer if you like the style.
I can change it 'round,
And I want to be a paperback writer,
Paperback writer.
If you really like it you can have the rights.
It could make a million for you overnight.
If you must return it you can send it here,
But I need a break,
And I want to be a paperback writer,
Paperback writer.
Paperback writer, paperback writer.
Paperback writer, paperback writer.
Paperback writer, paperback writer.
Paperback writer, paperback writer.
Paperback writer...






Voices intro



e|------- ------- ------- -------|------- ------- ------- -------|
B|5-----------7---8--------------|-------------------------------|
G|5-----------7---9--------------|9---------------7--------------|
D|-------------------------------|-------------------------------|
A|-------------------------------|-------------------------------|
E|-------------------------------|-------------------------------|
Pa..........per.back wri.............ter (1st & 2nd)
e|------- ------- ------- -------|------- ------- ------- -------|
B|-------------------------------|-------------------------------|
G|-------------------------------|-------------------------------|
D|-------------------------------|9-----------7---9--------------|
A|-------------------------------|-------------------------------|
E|-------------------------------|-------------------------------|
Pa.........per..back (3rd)



x

e|------- ------- ------- -------|------- ------- ------- -------|
B|-------------------------------|-------------------------------|
G|-------------------------------|-------------------------------|
D|-------------------------------|-------------------------------|
A|-------------------------------|-------------------------------|
E|-------------------------------|-------------------------------|
(1st & 2nd on)
e|7------ ----3-- 3------ -------|3------ ------- 0------ -------|
B|-------------------------------|-------------------------------|
G|5---------------5--------------|-------------------------------|
D|-------------------------------|-------------------------------|
A|-------------------------------|-------------------------------|
E|-------------------------------|-------------------------------|
wri.............ter (3rd on)
Pa..........per.back wri.............ter (4th)







X x X X x X X x
e|------- ------- ------- -------|------- ------- ------- -------|
B|-------------------------------|-------------------------------|
G|-------------------------------|-------------------------------|
D|------------5-----------3------|------------------------3------|
A|----3-H-5----------------------|----3-----------3-H-5----------|
E|3------------------3-----------|3-----------3------------------|




X x X X x X X x X X x X
e|------- ------- ------- -------|------- ------- ------- -------|
B|-------------------------------|-------------------------------|
G|-------------------------------|-------------------------------|
D|------------5-----------3------|------------------------3------|
A|----3-H-5----------------------|----3-----------3-H-5----------|
E|3------------------3-----------|3-----------3------------------|
Dear



G5
e|------- ------- ------- -------|------- ------- ------- -------|
B|-------------------------------|-------------------------------|
G|-------------------------------|-------------------------------|
D|5-------5----------5-------5---|-------------------5----5------|
A|5-------5----------5----5--5---|5-------5----------5----5------|
E|3-------3----------3----7--3---|3-------3----------3----3------|
Sir or Madam, will you read my book? It took me
e|------- 3------ ------- ----3--|------- 3------ ------- -------|
B|--------3-------------------3--|--------3----------------------|
G|--------0-------------------0--|--------0----------------------|
D|-------------------------------|-------------------------------|
A|-------------------------------|-------------------------------|
E|-------------------------------|-------------------------------|





e|------- ------- ------- -------|------- ------- ------- -------|
B|-------------------------------|-------------------------------|
G|-------------------------------|-------------------------------|
D|5-------5----------5----5--5---|5-------5----------5-------5---|
A|5-------5----------5----5--5---|5-------5----------5----5--5---|
E|3-------3----------3----3--3---|3-------3----------3----7--3---|
years to write, will you take a look? It's
e|------- 3------ ------- -------|------- 3------ 3------ -------|
B|--------3----------------------|--------3-------3--------------|
G|--------0----------------------|--------0-------0--------------|
D|-------------------------------|-------------------------------|
A|-------------------------------|-------------------------------|
E|-------------------------------|-------------------------------|





e|------- ------- ------- -------|------- ------- ------- -------|
B|-------------------------------|-------------------------------|
G|-------------------------------|-------------------------------|
D|--------5----------5----5--5---|5-------5----------5----5--5---|
A|5-------5----------5----5--5---|5-------5----------5----5--5---|
E|3-------3----------3----3--3---|3-------3----------3----3--3---|
based on a novel by a man named Lear, And I
e|------- 3------ ------- -------|------- 3------ 3------ -------|
B|--------3----------------------|--------3-------3--------------|
G|--------0----------------------|--------0-------0--------------|
D|-------------------------------|-------------------------------|
A|-------------------------------|-------------------------------|
E|-------------------------------|-------------------------------|





e|------- ------- ------- -------|------- ------- ------- -------|
B|-------------------------------|-------------------------------|
G|-------------------------------|-------------------------------|
D|5-------5----------5----5--5---|5-------5----------5----5--5---|
A|5-------5----------5----5--5---|5-------5----------5----5--5---|
E|3-------3----------3----3--3---|3-------3----------3----3--3---|
need a job, So I want to be a paperback
e|------- 3------ 3------ -------|------- 3------ 3------ -------|
B|--------3-------3--------------|--------3-------3--------------|
G|--------0-------0--------------|--------0-------0--------------|
D|-------------------------------|-------------------------------|
A|-------------------------------|-------------------------------|
E|-------------------------------|-------------------------------|




C5
e|------- ------- ------- -------|------- ------- ------- -------|
B|-------------------------------|-------------------------------|
G|-------------------5-------5---|-------------------------------|
D|5-------5----------5-------5---|5------------------------------|
A|3-------3----------3-------3---|3------------------------------|
E|-------------------------------|-------------------------------|
writer, Pa.......per.back
(Pa.......per.back
e|------- 3------ ------- -------|------- 3------ ------- -------|
B|--------5----------------------|--------5----------------------|
G|--------5----------------------|--------5----------------------|
D|-------------------------------|-------------------------------|
A|-------------------------------|-------------------------------|
E|-------------------------------|-------------------------------|





e|------- ------- ------- -------|------- ------- ------- -------|
B|-------------------------------|-------------------------------|
G|-------------------------------|-------------------------------|
D|------------5-----------3------|------------------------3------|
A|----3-H-5----------------------|----3-----------3-H-5----------|
E|3------------------3-----------|3-----------3------------------|
writer. It's a
writer)
e|3------ 3------ ------- -------|------- ------- ------- -------|
B|3-------3----------------------|-------------------------------|
G|0-------0----------------------|-------------------------------|
D|-------------------------------|-------------------------------|
A|-------------------------------|-------------------------------|
E|-------------------------------|-------------------------------|





e|------- ------- ------- -------|------- ------- ------- -------|
B|-------------------------------|-------------------------------|
G|-------------------------------|-------------------------------|
D|--------5-------5--5----5--5---|--------5--5----5--5----5--5---|
A|5-------5-------5--5----5--5---|5-------5--5----5--5----5--5---|
E|3-------3-------3--3----3--3---|3-------3--3----3--3----3--3---|
dirty story of a dirty man, and his
e|------- 3------ ------- -------|------- 3------ 3------ -------|
B|--------3----------------------|--------3-------3-3------------|
G|--------0----------------------|--------0-------0--------------|
D|-------------------------------|-------------------------------|
A|-------------------------------|-------------------------------|
E|-------------------------------|-------------------------------|




G5
e|------- ------- ------- -------|------- ------- ------- -------|
B|-------------------------------|-------------------------------|
G|-------------------------------|-------------------------------|
D|--------5--5----5--5----5--5---|--------5-------5--5----5--5---|
A|5-------5--5----5--5----5--5---|5-------5-------5--5----5--5---|
E|3-------3--3----3--3----3--3---|3-------3-------3--3----3--3---|
clinging wife doesn't understand. His
e|------- 3------ ------- -------|------- 3------ 3------ -------|
B|--------3----------------------|--------3-------3--------------|
G|--------0----------------------|--------0-------0--------------|
D|-------------------------------|-------------------------------|
A|-------------------------------|-------------------------------|
E|-------------------------------|-------------------------------|





e|------- ------- ------- -------|------- ------- ------- -------|
B|-------------------------------|-------------------------------|
G|-------------------------------|-------------------------------|
D|--------5-------5--5----5--5---|--------5-------5--5----5--5---|
A|5-------5-------5--5----5--5---|5-------5-------5--5----5--5---|
E|3-------3-------3--3----3--3---|3-------3-------3--3----3--3---|
son is working for the Daily Mail.
e|------- 3------ ------- -------|------- 3------ 3------ -------|
B|--------3----------------------|--------3-------3--------------|
G|--------0----------------------|--------0-------0--------------|
D|-------------------------------|-------------------------------|
A|-------------------------------|-------------------------------|
E|-------------------------------|-------------------------------|





e|------- ------- ------- -------|------- ------- ------- -------|
B|-------------------------------|-------------------------------|
G|-------------------------------|-------------------------------|
D|--------5-------5--5----5--5---|--------5-------5--5----5------|
A|5-------5-------5--5----5--5---|5-------5-------5--5----5------|
E|3-------3-------3--3----3--3---|3-------3-------3--3----3------|
steady job, but he wants to be a paperback
e|------- 3------ ---3--- ----3--|------- 3------ 3------ -------|
B|--------3----------3--------3--|--------3-------3-3------------|
G|--------0----------0--------0--|--------0-------0--------------|
D|-------------------------------|-------------------------------|
A|-------------------------------|-------------------------------|
E|-------------------------------|-------------------------------|




C5
e|------- ------- ------- -------|------- ------- ------- -------|
B|-------------------------------|-------------------------------|
G|-------------------5-------5---|--------5----------5----5------|
D|5-------5----------5-------5---|5-------5----------5----5------|
A|3-------3----------3-------3---|3-------3----------3----3------|
E|-------------------------------|-------------------------------|
writer, Pa.......per.back
(Pa.......per.back
e|------- 3------ ----3-- -------|------- 3------ ----3-- -------|
B|--------5-----------5----------|--------5-----------5----------|
G|--------5-----------5----------|--------5-----------5----------|
D|-------------------------------|-------------------------------|
A|-------------------------------|-------------------------------|
E|-------------------------------|-------------------------------|





e|------- ------- ------- -------|------- ------- ------- -------|
B|-------------------------------|-------------------------------|
G|-------------------------------|-------------------------------|
D|------------5------------------|-------------------------------|
A|----3-H-5----------------------|-------------------------------|
E|3------------------------------|-------------------------------|
writer.
writer)
e|3------ 3------ ------- -------|------- ------- ------- -------|
B|3-------3----------------------|-------------------------------|
G|0-------0----------------------|-------------------------------|
D|-------------------------------|-------------------------------|
A|-------------------------------|-------------------------------|
E|-------------------------------|-------------------------------|




Voices


e|------- ------- ------- -------|------- ------- ------- -------|
B|5-----------7---8--------------|-------------------------------|
G|5-----------7---9--------------|9---------------7--------------|
D|-------------------------------|-------------------------------|
A|-------------------------------|-------------------------------|
E|-------------------------------|-------------------------------|
Pa..........per.back wri.............ter (1st & 2nd)
e|------- ------- ------- -------|------- ------- ------- -------|
B|-------------------------------|-------------------------------|
G|-------------------------------|-------------------------------|
D|-------------------------------|9-----------7---9--------------|
A|-------------------------------|-------------------------------|
E|-------------------------------|-------------------------------|
Pa.........per..back (3rd)



x

e|------- ------- ------- -------|------- ------- ------- -------|
B|-------------------------------|-------------------------------|
G|-------------------------------|-------------------------------|
D|-------------------------------|-------------------------------|
A|-------------------------------|-------------------------------|
E|-------------------------------|-------------------------------|
(1st & 2nd on)
e|7------ ----3-- 3------ -------|3------ ------- 0------ -------|
B|-------------------------------|-------------------------------|
G|5---------------5--------------|-------------------------------|
D|-------------------------------|-------------------------------|
A|-------------------------------|-------------------------------|
E|-------------------------------|-------------------------------|
wri.............ter (3rd on)
Pa..........per.back wri.............ter (4th)





x x x
X x X x X X x X X x
e|------- ------- ------- -------|------- ------- ------- -------|
B|-------------------------------|-------------------------------|
G|-------------------------------|-------------------------------|
D|------------5-----------3------|------------------------3------|
A|----3-H-5----------------------|----3-----------3-H-5----------|
E|3------------------3-----------|3-----------3------------------|




X x X x X X x X X x
e|------- ------- ------- -------|------- ------- ------- -------|
B|-------------------------------|-------------------------------|
G|-------------------------------|-------------------------------|
D|------------5-----------3------|------------------------3------|
A|----3-H-5----------------------|----3-----------3-H-5----------|
E|3------------------3-----------|3-----------3------------------|
It's a



G5
e|------- ------- ------- -------|------- ------- ------- -------|
B|-------------------------------|-------------------------------|
G|-------------------------------|-------------------------------|
D|5-------5----------------------|--------5----------5----5--5---|
A|5-------5-------5--5----7--5---|5-------5-------5--5----5--5---|
E|3-------3-------3--3----3--3---|3-------3-------3--3----3--3---|
thousand pages, give or take a few. I'll be
e|3------ ------- ------- -------|5------ ------- ------- -------|2nd & 3rd
B|-------------------------------|-------------------------------|voices
G|4------------------------------|5------------------------------|
D|-------------------------------|-------------------------------|
A|-------------------------------|-------------------------------|
E|-------------------------------|-------------------------------|
(Fre.............................re.............................
e|------- 3------ 3------ -------|------- 3------ ------- -------|
B|--------3-------3--------------|--------3----------------------|
G|--------0-------0--------------|--------0----------------------|
D|-------------------------------|-------------------------------|
A|-------------------------------|-------------------------------|
E|-------------------------------|-------------------------------|





e|------- ------- ------- -------|------- ------- ------- -------|
B|-------------------------------|-------------------------------|
G|-------------------------------|-------------------------------|
D|--------5----------5----5--5---|--------5----------5----5--5---|
A|5-------5----------5----5--5---|5-------5----------5----5--5---|
E|3-------3----------3----3--3---|3-------3----------3----3--3---|
writing more in a week or two. I could
e|7------ ------- ------- -------|3------ ------- ------- -------|
B|-------------------------------|-------------------------------|
G|7------------------------------|4------------------------------|
D|-------------------------------|-------------------------------|
A|-------------------------------|-------------------------------|
E|-------------------------------|-------------------------------|
Jac.............................ques...........................
e|------- 3------ ------- -------|------- 3------ ------- -------|
B|--------3----------------------|--------3----------------------|
G|--------0----------------------|--------0----------------------|
D|-------------------------------|-------------------------------|
A|-------------------------------|-------------------------------|
E|-------------------------------|-------------------------------|





e|------- ------- ------- -------|------- ------- ------- -------|
B|-------------------------------|-------------------------------|
G|-------------------------------|-------------------------------|
D|--------5-------5--5-------5---|--------5----------5-----------|
A|5-------5-------5--5-------5---|5-------5----------5-----------|
E|3-------3-------3--3-------3---|3-------3----------3-----------|
make it longer if you like the style. I can
e|3------ ------- ------- -------|5------ ------- ------- -------|
B|-------------------------------|-------------------------------|
G|4------------------------------|5------------------------------|
D|-------------------------------|-------------------------------|
A|-------------------------------|-------------------------------|
E|-------------------------------|-------------------------------|
(Fre.............................re.............................
e|------- 3------ ---3--- ---3---|------- 3------ ---3--- -------|
B|--------3----------3-------3---|--------3----------3-----------|
G|--------0----------0-------0---|--------0----------0-----------|
D|-------------------------------|-------------------------------|
A|-------------------------------|-------------------------------|
E|-------------------------------|-------------------------------|





e|------- ------- ------- -------|------- ------- ------- -------|
B|-------------------------------|-------------------------------|
G|-------------------------------|-------------------------------|
D|--------5----------5-------5---|--------5--5----5--5----5------|
A|5-------5----------5-------5---|5-------5--5----5--5----5------|
E|3-------3----------3-------3---|3-------3--3----3--3----3------|
change it 'round, And I want to be a paperback
e|7------ ------- ------- -------|3------ ------- ------- -------|
B|-------------------------------|-------------------------------|
G|7------------------------------|4------------------------------|
D|-------------------------------|-------------------------------|
A|-------------------------------|-------------------------------|
E|-------------------------------|-------------------------------|
Jac.............................ques...........................)
e|------- 3------ ---3--- -------|------- 3------ ------- -------|
B|--------3----------3-----------|--------3----------------------|
G|--------0----------0-----------|--------0----------------------|
D|-------------------------------|-------------------------------|
A|-------------------------------|-------------------------------|
E|-------------------------------|-------------------------------|




C5
e|------- ------- ------- -------|------- ------- ------- -------|
B|-------------------------------|-------------------------------|
G|-------------------5-------5---|-------------------------------|
D|5-------5----------5-------5---|5-------5----------5----5------|
A|3-------3----------3-------3---|3-------3----------3----3------|
E|-------------------------------|-------------------------------|
writer, Pa.......per.back
(Pa.......per.back
e|------- 3------ ------- -------|------- 3------ ------- 3------|
B|--------5----------------------|--------5---------------5------|
G|--------5----------------------|--------5---------------5------|
D|-------------------------------|-------------------------------|
A|-------------------------------|-------------------------------|
E|-------------------------------|-------------------------------|




X X x x x x x x x x x x X
e|------- ------- ------- -------|------- ------- ------- -------|
B|-------------------------------|-------------------------------|
G|-------------------------------|-------------------------------|
D|------------5-----------3------|-------------------------------|
A|----3-H-5----------------------|----3-----------3---3-H-5------|
E|3------------------3-----------|3-----------3------------------|
writer. If you
writer)
e|3------ 3------ ------- -------|------- ------- ------- -------|
B|3-------3----------------------|-------------------------------|
G|0-------0----------------------|-------------------------------|
D|-------------------------------|-------------------------------|
A|-------------------------------|-------------------------------|
E|-------------------------------|-------------------------------|




G5
e|------- ------- ------- -------|------- ------- ------- -------|
B|-------------------------------|-------------------------------|
G|-------------------------------|-------------------------------|
D|5-------5----------------------|--------5-------5--5----5------|
A|5-------5-------5--5----7--5---|5-------5-------5--5----5------|
E|3-------3-------3--3----3--3---|3-------3-------3--3----3------|
really like it you can have the rights. You could
e|7------ ------- ------- -------|8------ ------- ------- -------|2nd & 3rd
B|------------------------8------10------------------------------|voices
G|-------------------------------|-------------------------------|
D|-------------------------------|-------------------------------|
A|-------------------------------|-------------------------------|
E|-------------------------------|-------------------------------|
(Fre.............................re.............................
e|------- 3------ ------- -------|------- 3------ --3---- -------|
B|--------3----------------------|--------3---------3------------|
G|--------0----------------------|--------0---------0------------|
D|-------------------------------|-------------------------------|
A|-------------------------------|-------------------------------|
E|-------------------------------|-------------------------------|





e|------- ------- ------- -------|------- ------- ------- -------|
B|-------------------------------|-------------------------------|
G|-------------------------------|-------------------------------|
D|--------5----------5-------5---|--------5-------5--5----5------|
A|5-------5----------5-------5---|5-------5-------5--5----5------|
E|3-------3----------3-------3---|3-------3-------3--3----3------|
make a million for you overnight. If you
e|10----- ------- ------- -------|7------ ------- ------- -------|
B|12-----------------------------|8------------------------------|
G|-------------------------------|-------------------------------|
D|-------------------------------|-------------------------------|
A|-------------------------------|-------------------------------|
E|-------------------------------|-------------------------------|
Jac.............................ques...........................)
e|------- 3------ --3---- -------|------- 3------ 3------ -------|
B|--------3---------3------------|--------3-------3-3------------|
G|--------0---------0------------|--------0-------0--------------|
D|-------------------------------|-------------------------------|
A|-------------------------------|-------------------------------|
E|-------------------------------|-------------------------------|





e|------- ------- ------- -------|------- ------- ------- -------|
B|-------------------------------|-------------------------------|
G|-------------------------------|-------------------------------|
D|-------------------5-------5---|--------5----------5-------5---|
A|5-------5----------5-------5---|5-------5----------5-------5---|
E|3-------3----------3-------3---|3-------3----------3-------3---|
must return it you can send it here, But I
e|7------ ------- ------- -------|8------ ------- ------- -------|
B|8------------------------------10------------------------------|
G|-------------------------------|-------------------------------|
D|-------------------------------|-------------------------------|
A|-------------------------------|-------------------------------|
E|-------------------------------|-------------------------------|
(Fre.............................re.............................
e|------- 3------ --3---- -------|------- 3------ --3---- -------|
B|--------3---------3------------|--------3---------3------------|
G|--------0---------0------------|--------0---------0------------|
D|-------------------------------|-------------------------------|
A|-------------------------------|-------------------------------|
E|-------------------------------|-------------------------------|





e|------- ------- ------- -------|------- ------- ------- -------|
B|-------------------------------|-------------------------------|
G|-------------------------------|-------------------------------|
D|--------5--5-------5-------5---|-------------------------------|
A|5-------5--5-------5-------5---|5-------5--5-------5-------5---|
E|3-------3--3-------3-------3---|3-------3--3-------3-------3---|
need a break, And I want to be a paperback
e|10----- ------- ------- -------|7------ ------- ------- -------|
B|12-----------------------------|8------------------------------|
G|-------------------------------|-------------------------------|
D|-------------------------------|-------------------------------|
A|-------------------------------|-------------------------------|
E|-------------------------------|-------------------------------|
Jac.............................ques...........................)
e|------- 3--3--- ------- -------|------- 3------ ------- -------|
B|--------3--3-------------------|--------3----------------------|
G|--------0--0-------------------|--------0----------------------|
D|-------------------------------|-------------------------------|
A|-------------------------------|-------------------------------|
E|-------------------------------|-------------------------------|




C5
e|------- ------- ------- -------|------- ------- ------- -------|
B|-------------------------------|-------------------------------|
G|-------------------5-------5---|--------5----------5----5------|
D|5-------5----------5-------5---|5-------5----------5----5------|
A|3-------3----------3-------3---|3-------3----------3----3------|
E|-------------------------------|-------------------------------|
writer, Pa.......per.back
(Pa.......per.back
e|------- 3------ ------- -------|------- 3------ --3---- -------|
B|--------5----------------------|--------5---------5------------|
G|--------5----------------------|--------5---------5------------|
D|-------------------------------|-------------------------------|
A|-------------------------------|-------------------------------|
E|-------------------------------|-------------------------------|




X X
e|------- ------- ------- -------|------- ------- ------- -------|
B|-------------------------------|-------------------------------|
G|-------------------------------|-------------------------------|
D|------------5------------------|-------------------------------|
A|----3-H-5----------------------|-------------------------------|
E|3------------------------------|-------------------------------|
writer.
writer)
e|3------ 3------ ------- -------|------- ------- ------- -------|
B|3-------3----------------------|-------------------------------|
G|0-------0----------------------|-------------------------------|
D|-------------------------------|-------------------------------|
A|-------------------------------|-------------------------------|
E|-------------------------------|-------------------------------|



Voices


e|------- ------- ------- -------|------- ------- ------- -------|
B|5-----------7---8--------------|-------------------------------|
G|5-----------7---9--------------|9---------------7--------------|
D|-------------------------------|-------------------------------|
A|-------------------------------|-------------------------------|
E|-------------------------------|-------------------------------|
Pa..........per.back wri.............ter (1st & 2nd)
e|------- ------- ------- -------|------- ------- ------- -------|
B|-------------------------------|-------------------------------|
G|-------------------------------|-------------------------------|
D|-------------------------------|9-----------7---9--------------|
A|-------------------------------|-------------------------------|
E|-------------------------------|-------------------------------|
Pa.........per..back (3rd)


x

e|------- ------- ------- -------|------- ------- ------- -------|
B|-------------------------------|-------------------------------|
G|-------------------------------|-------------------------------|
D|-------------------------------|-------------------------------|
A|-------------------------------|-------------------------------|
E|-------------------------------|-------------------------------|
(1st & 2nd on)
e|7------ ----3-- 3------ -------|3------ ------- 0------ -------|
B|-------------------------------|-------------------------------|
G|5---------------5--------------|-------------------------------|
D|-------------------------------|-------------------------------|
A|-------------------------------|-------------------------------|
E|-------------------------------|-------------------------------|
wri.............ter (3rd on)
Pa..........per.back wri.............ter (4th)




X x X x X X x X X x
e|------- ------- ------- -------|------- ------- ------- -------|
B|-------------------------------|-------------------------------|
G|-------------------------------|-------------------------------|
D|------------5-----------3------|-------------------------------|
A|----3-H-5----------------------|----3-----------3---3-H-5------|
E|3------------------3-----------|3-----------3------------------|




X x X x X X x X X x
e|------- ------- ------- -------|------- ------- ------- -------|
B|-------------------------------|-------------------------------|
G|-------------------------------|-------------------------------|
D|------------5-----------3------|-------------------------------|
A|----3-H-5----------------------|----3-----------3---3-H-5------|
E|3------------------3-----------|3-----------3------------------|





G5
e|------- ------- ------- -------|------- ------- ------- -------|
B|-------------------------------|-------------------------------|
G|-------------------------------|-------------------------------|
D|--------5----------5----5------|--------5----------5----5------|
A|5-------5----------5----5------|5-------5----------5----5------|
E|3-------3----------3----3------|3-------3----------3----3------|
Pa.........per..back ...........wri................ter,
(Paper...back
e|7------ ---8--- 10----- -------|10----- ------- 7------ -------|1st & 2nd
B|8---------10----12-------------|12--------------8--------------|voices
G|-------------------------------|-------------------------------|
D|-------------------------------|-------------------------------|
A|-------------------------------|-------------------------------|
E|-------------------------------|-------------------------------|

e|------- ------- ------- -------|------- ------- ------- -------|3rd & 4Th
B|-------------------------------|-------------------------------|voices
G|-------------------------------|----------------7--7----7------|
D|-------------------------------|----------------9--9----9------|
A|-------------------------------|-------------------------------|
E|-------------------------------|-------------------------------|

e|------- 3------ ---3--- 3------|------- 3------ --3---- 3--3---|
B|--------3----------3----3------|--------3---------3-----3--3---|
G|--------0----------0----0------|--------0---------0-----0--0---|
D|-------------------------------|-------------------------------|
A|-------------------------------|-------------------------------|
E|-------------------------------|-------------------------------|






e|------- ------- ------- -------|------- ------- ------- -------|
B|-------------------------------|-------------------------------|
G|-------------------------------|-------------------------------|
D|--------5-------5--5----5--5---|5-------5------------------5---|
A|5-------5-------5--5----5--5---|5-------5----------5-------5---|
E|3-------3-------3--3----3--3---|3-------3-------3--3-------3---|

writer.)
e|------- ------- ------- -------|------- ------- ------- -------|
B|-------------------------------|-------------------------------|
G|7-------7----------------------|-------------------------------|
D|9-------9----------------------|-------------------------------|
A|-------------------------------|-------------------------------|
E|-------------------------------|-------------------------------|

e|------- 3------ ------- 3------|------- 3------ 3------ ---3---|
B|--------3----------3----3--3---|--------3-------3--3-------3---|
G|--------0----------0----0--0---|--------0-------0--0-------0---|
D|-------------------------------|-------------------------------|
A|-------------------------------|-------------------------------|
E|-------------------------------|-------------------------------|






e|------- ------- ------- -------|------- ------- ------- -------|
B|-------------------------------|-------------------------------|
G|-------------------------------|-------------------------------|
D|--------5-------5--5----5--5---|--------5----------5----5--5---|
A|5-------5-------5--5----5--5---|5-------5----------5----5--5---|
E|3-------3-------3--3----3--3---|3-------3----------3----3--3---|
Pa.........per..back ...........wri................ter,
(Paper...back
e|7------ ---8--- 10----- -------|10----- ------- 7------ -------|
B|8---------10----12-------------|12--------------8--------------|
G|-------------------------------|-------------------------------|
D|-------------------------------|-------------------------------|
A|-------------------------------|-------------------------------|
E|-------------------------------|-------------------------------|

e|------- ------- ------- -------|------- ------- ------- -------|
B|-------------------------------|-------------------------------|
G|-------------------------------|----------------7--7----7------|
D|-------------------------------|----------------9--9----9------|
A|-------------------------------|-------------------------------|
E|-------------------------------|-------------------------------|

e|------- 3------ 3--3--- ---3---|------- 3------ 3------ ---3---|
B|--------3-------3--3-------3---|--------3-------3--3-------3---|
G|--------0-------0--0-------0---|--------0-------0--0-------0---|
D|-------------------------------|-------------------------------|
A|-------------------------------|-------------------------------|
E|-------------------------------|-------------------------------|






e|------- ------- ------- -------|------- ------- ------- -------|
B|-------------------------------|-------------------------------|
G|-------------------------------|-------------------------------|
D|-------------------5-------5---|-------------------5-------5---|
A|5-------5----------5-------5---|5-------5-------5--5-------5---|
E|3-------3----------3-------3---|3-------3-------3--3-------3---|

writer)
e|------- ------- ------- -------|------- ------- ------- -------|
B|-------------------------------|-------------------------------|
G|7-------7----------------------|-------------------------------|
D|9-------9----------------------|-------------------------------|
A|-------------------------------|-------------------------------|
E|-------------------------------|-------------------------------|

e|------- 3------ 3--3--- ---3---|------- 3------ 3------ ---3---|
B|--------3-------3--3-------3---|--------3-------3--3-------3---|
G|--------0-------0--0-------0---|--------0-------0--0-------0---|
D|-------------------------------|-------------------------------|
A|-------------------------------|-------------------------------|
E|-------------------------------|-------------------------------|






e|------- ------- ------- -------|------- ------- ------- -------|
B|-------------------------------|-------------------------------|
G|-------------------------------|-------------------------------|
D|-------------------5-------5---|-------------------5----5--5---|
A|5-------5-------5--5-------5---|5-------5-------5--5----5--5---|
E|3-------3-------3--3-------3---|3-------3-------3--3----3--3---|
Pa.........per..back ...........wri................ter,
(Paper...back
e|7------ ---8--- 10----- -------|10----- ------- 7------ -------|
B|8---------10----12-------------|12--------------8--------------|
G|-------------------------------|-------------------------------|
D|-------------------------------|-------------------------------|
A|-------------------------------|-------------------------------|
E|-------------------------------|-------------------------------|

e|------- ------- ------- -------|------- ------- ------- -------|
B|-------------------------------|-------------------------------|
G|-------------------------------|----------------7--7----7------|
D|-------------------------------|----------------9--9----9------|
A|-------------------------------|-------------------------------|
E|-------------------------------|-------------------------------|

e|------- 15----- 15--10- ---10--|------- 15----- 15--10- ---10--|
B|--------12------12--12-----12--|--------12------12--12-----12--|
G|--------12------12--12-----12--|--------12------12--12-----12--|
D|-------------------------------|-------------------------------|
A|-------------------------------|-------------------------------|
E|-------------------------------|-------------------------------|






e|------- ------- ------- -------|------- ------- ------- -------|
B|-------------------------------|-------------------------------|
G|-------------------------------|-------------------------------|
D|5-------5----------5-------5---|5-------5----------5-------5---|
A|5-------5----------5-------5---|5-------5----------5-------5---|
E|3-------3----------3-------3---|3-------3----------3-------3---|

writer)
e|------- ------- ------- -------|------- ------- ------- -------|
B|-------------------------------|-------------------------------|
G|7-------7----------------------|-------------------------------|
D|9-------9----------------------|-------------------------------|
A|-------------------------------|-------------------------------|
E|-------------------------------|-------------------------------|

e|------- 15----- 15--10- ---10--|------- 15----- 15--10- ---10--|
B|--------12------12--12-----12--|--------12------12--12-----12--|
G|--------12------12--12-----12--|--------12------12--12-----12--|
D|-------------------------------|-------------------------------|
A|-------------------------------|-------------------------------|
E|-------------------------------|-------------------------------|
.............................Fade..............................





e|------- ------- ------- -------|------- ------- ------- -------|
B|-------------------------------|-------------------------------|
G|-------------------------------|-------------------------------|
D|-------------------5-------5---|-------------------5-------5---|
A|5-------5----------5-------5---|5-------5----------5-------5---|
E|3-------3----------3-------3---|3-------3----------3-------3---|
Pa.........per..back ...........wri................ter,
(Paper...back
e|7------ ---8--- 10----- -------|10-12-- --10--- 7------ -------|
B|8---------10----12-------------|12-14-----12----8--------------|
G|-------------------------------|-------------------------------|
D|-------------------------------|-------------------------------|
A|-------------------------------|-------------------------------|
E|-------------------------------|-------------------------------|

e|------- ------- ------- -------|------- ------- ------- -------|
B|-------------------------------|-------------------------------|
G|-------------------------------|----------------7--7----7------|
D|-------------------------------|----------------9--9----9------|
A|-------------------------------|-------------------------------|
E|-------------------------------|-------------------------------|

e|------- 15----- 15--10- ---10--|------- 15----- 15--10- ---10--|
B|--------12------12--12-----12--|--------12------12--12-----12--|
G|--------12------12--12-----12--|--------12------12--12-----12--|
D|-------------------------------|-------------------------------|
A|-------------------------------|-------------------------------|
E|-------------------------------|-------------------------------|
...............................................................





e|------- ------- ------- -------|------- ------- ------- -------|
B|-------------------------------|-------------------------------|
G|-------------------------------|-------------------------------|
D|-------------------5----5--5---|5-------5----------5-------5---|
A|5-------5----------5----5--5---|5-------5----------5-------5---|
E|3-------3----------3----3--3---|3-------3----------3-------3---|

writer)
e|------- ------- ------- -------|------- ------- ------- -------|
B|-------------------------------|-------------------------------|
G|7-------7----------------------|-------------------------------|
D|9-------9----------------------|-------------------------------|
A|-------------------------------|-------------------------------|
E|-------------------------------|-------------------------------|

e|------- 15----- 15--10- ---10--|------- 15----- 15--10- ---10--|
B|--------12------12--12-----12--|--------12------12--12-----12--|
G|--------12------12--12-----12--|--------12------12--12-----12--|
D|-------------------------------|-------------------------------|
A|-------------------------------|-------------------------------|
E|-------------------------------|-------------------------------|
...............................................................









B Bend
R Release
/ Slide up
\ Slide down
H Hammer-on
P Pull-off
~ Vibrato
+ Harmonic
x Mute note
. Play note like a dot in standard notation
^ Ties two notes together
(. Pause

pjvill

Submitted by pjvill at Thu 15 Dec, 2005 9:48 am

Author: ?
Composer: ?
Publisher: ?
Language: English

Reactions

CommonCrawl [Bot]

Follow Muzikum