The Beatles

The Beatles
Not A Second Time (Guitar tab)

--------------------------------------------------------------------------

THE BEATLES - NOT A SECOND TIME (Lennon/McCartney) From WITH THE BEATLES
album. Released on 22nd November 1963


--------------------------------------------------------------------------

Tabbed by:PJVillanueva






You know you made me cry,
I see no use in wond'ring why,
I cried for you.

And now, you've changed your mind,
I see no reason to change mine,
I cried, it's through, oh.

You're giving me the same old line,
I'm wond'ring why,
You hurt me then, you're back again,
No, no, no, not a second time.




G Em
e|3------ 3------ ------- 3------|0------ 0-0-0-0 0------ 0------|
B|3-------3---------------3------|0-------0-0-0-0-0-------0------|
G|0-------0---------------0------|0-------0-0-0-0-0-------0------|
D|0-------0---------------0------|2-------2-2-2-2-2-------2------|
A|2-------2---------------2------|2-------2-2-2-2-2-------2------|
E|3-------3---------------3------|0-------0-0-0-0-0-------0------|
You know you made me cry,
e|------- ------- ------- -------|------- ------- ------- -------|
B|-------------------------------|-------------------------------|
G|-------------------------------|-------------------------------|
D|5-----------5---5--------------|2------------2--2--------------|
A|5-----------5---5--------------|2------------2--2--------------|
E|3-----------3---3--------------|0------------0--0--------------|


G Em
e|3------ 3---3-- 3------ 3------|0------ 0---0-- 0------ 0------|
B|3-------3---3---3-------3------|0-------0---0---0-------0------|
G|0-------0---0---0-------0------|0-------0---0---0-------0------|
D|0-------0---0---0-------0------|2-------2---2---2-------2------|
A|2-------2---2---2-------2------|2-------2---2---2-------2------|
E|3-------3---3---3-------3------|0-------0---0---0-------0------|
I see no use in wond'ring why, I
e|------- ------- ------- -------|------- ------- ------- -------|
B|-------------------------------|-------------------------------|
G|-------------------------------|-------------------------------|
D|5-----------5---5--------------|2------------2--2--------------|
A|5-----------5---5--------------|2------------2--2--------------|
E|3-----------3---3--------------|0------------0--0--------------|


D G
e|2------ 2---2-- 2------ 2------|3------ 3---3-- ------- 3------|
B|3-------3---3---3-------3------|3-------3---3-----------3------|
G|2-------2---2---2-------2------|0-------0---0-----------0------|
D|0-------0---0---0-------0------|0-------0---0-----------0------|
A|-------------------------------|2-------2---2-----------2------|
E|-------------------------------|3-------3---3-----------3------|
cried for you
e|------- ------- ------- -------|------- ------- ------- -------|
B|-------------------------------|-------------------------------|
G|7-----------7---7--------------|-------------------------------|
D|7-----------7---7--------------|5-----------5---5--------------|
A|5-----------5---5--------------|5-----------5---5--------------|
E|-------------------------------|3-----------3---3--------------|


D
e|------- 2------ ----2-- 2------|
B|--------3-----------3---3------|
G|--------2-----------2---2------|
D|--------0-----------0---0------|
A|-------------------------------|
E|-------------------------------|

e|------- ------- ------- -------|
B|-------------------------------|
G|7-----------7---7--------------|
D|7-----------7---7--------------|
A|5-----------5---5--------------|
E|-------------------------------|


G Em
e|3------ 3------ ------- 3------|0------ 0-0-0-0 0------ 0------|
B|3-------3---------------3------|0-------0-0-0-0-0-------0------|
G|0-------0---------------0------|0-------0-0-0-0-0-------0------|
D|0-------0---------------0------|2-------2-2-2-2-2-------2------|
A|2-------2---------------2------|2-------2-2-2-2-2-------2------|
E|3-------3---------------3------|0-------0-0-0-0-0-------0------|
And now, you've changed your mind,
e|------- ------- ------- -------|------- ------- ------- -------|
B|-------------------------------|-------------------------------|
G|-------------------------------|-------------------------------|
D|5-----------5---5--------------|2-----------2-2-2--------------|
A|5-----------5---5--------------|2-----------2-2-2--------------|
E|3-----------3---3--------------|0-----------0-0-0--------------|


G Em
e|3------ 3---3-- 3------ 3------|0------ 0---0-- 0------ 0------|
B|3-------3---3---3-------3------|0-------0---0---0-------0------|
G|0-------0---0---0-------0------|0-------0---0---0-------0------|
D|0-------0---0---0-------0------|2-------2---2---2-------2------|
A|2-------2---2---2-------2------|2-------2---2---2-------2------|
E|3-------3---3---3-------3------|0-------0---0---0-------0------|
I see no reason to change mine, my
e|------- ------- ------- -------|------- ------- ------- -------|
B|-------------------------------|-------------------------------|
G|-------------------------------|-------------------------------|
D|5-----------5---5--------------|2------------2--2--------------|
A|5-----------5---5--------------|2------------2--2--------------|
E|3-----------3---3--------------|0------------0--0--------------|


D Am
e|2------ 2---2-- 2------ 2------|0------ 0---0-- ------- 0------|
B|3-------3---3---3-------3------|1-------1---1-----------1------|
G|2-------2---2---2-------2------|2-------2---2-----------2------|
D|0-------0---0---0-------0------|2-------2---2-----------2------|
A|-------------------------------|0-------0---0-----------0------|
E|-------------------------------|-------------------------------|
cry is through
e|------- ------- ------- -------|------- ------- ------- -------|
B|-------------------------------|-------------------------------|
G|7-----------7---7--------------|-------------------------------|
D|7-----------7---7--------------|7-----------7---7--------------|
A|5-----------5---5--------------|7-----------7---7--------------|
E|-------------------------------|5-----------5---5--------------|


D
e|2------ 2------ ----2-- 2------|
B|3-------3-----------3---3------|
G|2-------2-----------2---2------|
D|0-------0-----------0---0------|
A|-------------------------------|
E|-------------------------------|
Oh
e|------- ------- ------- -------|
B|-------------------------------|
G|7-----------7---7--------------|
D|7-----------7---7--------------|
A|5-----------5---5--------------|
E|-------------------------------|


Am Bm
e|0------ 0---0-- ------- 0------|2------ 2---2-- ------- 2------|
B|1-------1---1-----------1------|3-------3---3-----------3------|
G|2-------2---2-----------2------|4-------4---4-----------4------|
D|2-------2---2-----------2------|4-------4---4-----------4------|
A|0-------0---0-----------0------|2-------2---2-----------2------|
E|-------------------------------|-------------------------------|
You're giving me the same old line,
e|------- ------- ------- -------|------- ------- ------- -------|
B|-------------------------------|-------------------------------|
G|-------------------------------|-------------------------------|
D|7-----------7---7--------------|9-----------9---9--------------|
A|7-----------7---7--------------|9-----------9---9--------------|
E|5-----------5---5--------------|7-----------7---7--------------|


G Em
e|3------ 3---3-- ------- 3------|0------ 0---0-- ------- 0------|
B|3-------3---3-----------3------|0-------0---0-----------0------|
G|0-------0---0-----------0------|0-------0---0-----------0------|
D|0-------0---0-----------0------|2-------2---2-----------2------|
A|2-------2---2-----------2------|2-------2---2-----------2------|
E|3-------3---3-----------3------|0-------0---0-----------0------|
I'm wond'ring why,
e|------- ------- ------- -------|------- ------- ------- -------|
B|-------------------------------|-------------------------------|
G|-------------------------------|-------------------------------|
D|5-----------5---5--------------|2-----------2---2--------------|
A|5-----------5---5--------------|2-----------2---2--------------|
E|3-----------3---3--------------|0-----------0---0--------------|


Am
e|0------ 0------ ------- 0------|------- 0------ ------- 0------|
B|1-------1---------------1------|--------1---------------1------|
G|2-------2---------------2------|--------2---------------2------|
D|2-------2---------------2------|--------2---------------2------|
A|0-------0---------------0------|--------0---------------0------|
E|-------------------------------|-------------------------------|
You hurt me then, you're back again,
e|------- ------- ------- -------|------- ------- ------- -------|
B|-------------------------------|7------------------------------|
G|-------------------------------|5------------------------------|
D|7-----------7---7--------------|7-----------7---7--------------|
A|7-----------7---7--------------|7-----------7---7--------------|
E|5-----------5---5--------------|5-----------5---5--------------|


Bm D
e|2------ 2---2-- ------- 2------|2------ 2---2-- ------- 2------|
B|3-------3---3-----------3------|3-------3---3-----------3------|
G|4-------4---4-----------4------|2-------2---2-----------2------|
D|4-------4---4-----------4------|4-------4---4-----------4------|
A|2-------2---2-----------2------|5-------5---5-----------5------|
E|-------------------------------|-------------------------------|
No, no, no, Not a second
e|------- ------- ------- -------|------- ------- ------- -------|
B|-------------------------------|-------------------------------|
G|-------------------------------|7-----------7---7--------------|
D|9-----------9---9--------------|7-----------7---7--------------|
A|9-----------9---9--------------|5-----------5---5--------------|
E|7-----------7---7--------------|-------------------------------|


Em
e|0------ 0---0-- ------- 0------|0------ ------- ------- -------|
B|0-------0---0-----------0------|0------------------------------|
G|0-------0---0-----------0------|0------------------------------|
D|2-------2---2-----------2------|2------------------------------|
A|2-------2---2-----------2------|2------------------------------|
E|0-------0---0-----------0------|0------------------------------|
time
e|------- ------- ------- -------|------- ------- ------- -------|
B|-------------------------------|-------------------------------|
G|--------------------0----------|-------------------------------|
D|2-----------0---2-------2---0--|2------------------------------|
A|2-----------2---2-------2------|2------------------------------|
E|0---------------0--------------|0------------------------------|


Am Bm
e|------- 0---0-- ----0-- 0------|------- 2---2-- ----2-- 2------|
B|--------1---1-------1---1------|--------3---3-------3---3------|
G|--------2---2-------2---2------|--------4---4-------4---4------|
D|--------2---2-------2---2------|--------4---4-------4---4------|
A|--------0---0-------0---0------|--------2---2-------2---2------|
E|-------------------------------|-------------------------------|

e|------- ------- ------- -------|------- ------- ------- -------|
B|-------------------------------|-------------------------------|
G|-------------------------------|-------------------------------|
D|--------0----------------------|-------------------------------|
A|----------------3---2---0------|2-------3---0---2--------------|
E|----------------------------3--|-------------------------------|


G Em
e|------- 3---3-- ------- 3------|------- 0------ ----0-- 0---0--|
B|--------3---3-----------3------|--------0-----------0---0---0--|
G|--------0---0-----------0------|--------0-----------0---0---0--|
D|--------0---0-----------0------|--------2-----------2---2---2--|
A|--------2---2-----------2------|--------2-----------2---2---2--|
E|--------3---3-----------3------|--------0-----------0---0---0--|

e|------- ------- ------- -------|------- ------- ------- -------|
B|-------------------------------|-------------------------------|
G|----------------0--------------|-------------------------------|
D|--------2-------------------2--|-------------------------------|
A|-------------------------------|2------------------------------|
E|-------------------------------|-------------------------------|


Am
e|------- 0------ ------- 0------|------- 0---0-- ------- 0------|
B|--------1---------------1------|--------1---1-----------1------|
G|--------2---------------2------|--------2---2-----------2------|
D|--------2---------------2------|--------2---2-----------2------|
A|-------------------------------|-------------------------------|
E|-------------------------------|-------------------------------|

e|------- ------- ------- -------|------- ------- ------- -------|
B|-------------------------------|-------------------------------|
G|-------------------------------|-------------------------------|
D|--------0----------------------|--------0----------------------|
A|----------------3---2---0------|----------------3---2---0------|
E|-------------------------------|-------------------------------|


Bm D
e|------- 2---2-- ----2-- -------|------- 2------ 2---2-- 2---2--|
B|--------3---3-------3----------|--------3-------3---3---3---3--|
G|--------4---4-------4----------|--------2-------2---2---2---2--|
D|--------4---4-------4----------|--------4-------4---4---4---4--|
A|--------2---2-------2----------|--------5-------5---5---5---5--|
E|-------------------------------|-------------------------------|

e|------- ------- ------- -------|------- ------- ------- -------|
B|-------------------------------|-------------------------------|
G|-------------------------------|-------------------------------|
D|4-----------------------0------|-------------------------------|
A|-------------------------------|3---------------------------0--|
E|-------------------------------|----------------2---2---3------|


Em
e|------- 0------ ----0-- 0------|------- ------- ------- -------|
B|--------0-----------0---0------|-------------------------------|
G|--------0-----------0---0------|-------------------------------|
D|--------2-----------2---2------|-------------------------------|
A|--------2-----------2---2------|-------------------------------|
E|--------0-----------0---0------|-------------------------------|

e|------- ------- ------- -------|------- ------- ------- -------|
B|-------------------------------|-------------------------------|
G|-------------------------------|-------------------------------|
D|-------------------------------|-------------------------------|
A|-------------------------------|-------------------------------|
E|0------------------------------|-------------------------------|


G Em
e|3------ ----3-- ------- 3------|0------ 0---0-- ----0-- 0------|
B|3-----------3-----------3------|0-------0---0-------0---0------|
G|0-----------0-----------0------|0-------0---0-------0---0------|
D|0-----------0-----------0------|2-------2---2-------2---2------|
A|2-----------2-----------2------|2-------2---2-------2---2------|
E|3-----------3-----------3------|0-------0---0-------0---0------|
You know you made me cry,
e|------- ------- ------- -------|------- ------- ------- -------|
B|-------------------------------|-------------------------------|
G|-------------------------------|-------------------------------|
D|5-----------5---5--------------|2------------2--2--------------|
A|5-----------5---5--------------|2------------2--2--------------|
E|3-----------3---3--------------|0------------0--0--------------|


G Em
e|3------ 3---3-- ----3-- 3------|0------ 0---0-- ----0-- 0------|
B|3-------3---3-------3---3------|0-------0---0-------0---0------|
G|0-------0---0-------0---0------|0-------0---0-------0---0------|
D|0-------0---0-------0---0------|2-------2---2-------2---2------|
A|2-------2---2-------2---2------|2-------2---2-------2---2------|
E|3-------3---3-------3---3------|0-------0---0-------0---0------|
I see no use in wond'ring why, I
e|------- ------- ------- -------|------- ------- ------- -------|
B|-------------------------------|-------------------------------|
G|-------------------------------|-------------------------------|
D|5-----------5---5--------------|2------------2--2--------------|
A|5-----------5---5--------------|2------------2--2--------------|
E|3-----------3---3--------------|0------------0--0--------------|


D G
e|2------ 2---2-- ------- 2------|3------ 3---3-- ------- 3------|
B|3-------3---3-----------3------|3-------3---3-----------3------|
G|2-------2---2-----------2------|0-------0---0-----------0------|
D|0-------0---0-----------0------|0-------0---0-----------0------|
A|-------------------------------|2-------2---2-----------2------|
E|-------------------------------|3-------3---3-----------3------|
cried for you
e|------- ------- ------- -------|------- ------- ------- -------|
B|-------------------------------|-------------------------------|
G|7-----------7---7--------------|-------------------------------|
D|7-----------7---7--------------|5-----------5---5--------------|
A|5-----------5---5--------------|5-----------5---5--------------|
E|-------------------------------|3-----------3---3--------------|


D
e|------- 2---2-- ----2-- 2------|
B|--------3---3-------3---3------|
G|--------2---2-------2---2------|
D|--------0---0-------0---0------|
A|-------------------------------|
E|-------------------------------|

e|------- ------- ------- -------|
B|-------------------------------|
G|7-----------7---7--------------|
D|7-----------7---7--------------|
A|5-----------5---5--------------|
E|-------------------------------|


G Em
e|------- 3---3-- ------- 3------|------- 0---0-- ----0-- 0------|
B|--------3---3-----------3------|--------0---0-------0---0------|
G|--------0---0-----------0------|--------0---0-------0---0------|
D|--------0---0-----------0------|--------2---2-------2---2------|
A|--------2---2-----------2------|--------2---2-------2---2------|
E|--------3---3-----------3------|--------0---0-------0---0------|
And now, you've changed your mind,
e|------- ------- ------- -------|------- ------- ------- -------|
B|-------------------------------|-------------------------------|
G|-------------------------------|-------------------------------|
D|5-----------5---5--------------|2------------2--2--------------|
A|5-----------5---5--------------|2------------2--2--------------|
E|3-----------3---3--------------|0------------0--0--------------|


G Em
e|------- 3---3-- ------- 3------|0------ 0---0-- ----0-- 0------|
B|--------3---3-----------3------|0-------0---0-------0---0------|
G|--------0---0-----------0------|0-------0---0-------0---0------|
D|--------0---0-----------0------|2-------2---2-------2---2------|
A|--------2---2-----------2------|2-------2---2-------2---2------|
E|--------3---3-----------3------|0-------0---0-------0---0------|
I see no reason to change mine, my
e|------- ------- ------- -------|------- ------- ------- -------|
B|-------------------------------|-------------------------------|
G|-------------------------------|-------------------------------|
D|5-----------5---5--------------|2------------2--2--------------|
A|5-----------5---5--------------|2------------2--2--------------|
E|3-----------3---3--------------|0------------0--0--------------|


D Am
e|------- ----2-- ------- 2------|------- 0---0-- ------- 0------|
B|------------3-----------3------|--------1---1-----------1------|
G|------------2-----------2------|--------2---2-----------2------|
D|------------0-----------0------|--------2---2-----------2------|
A|-------------------------------|--------0---0-----------0------|
E|-------------------------------|-------------------------------|
cry is through
e|------- ------- ------- -------|------- ------- ------- -------|
B|-------------------------------|-------------------------------|
G|7-----------7---7--------------|-------------------------------|
D|7-----------7---7--------------|5-----------5---5--------------|
A|5-----------5---5--------------|5-----------5---5--------------|
E|-------------------------------|3-----------3---3--------------|


D
e|------- 2---2-- ----2-- 2---2--|
B|--------3---3-------3---3---3--|
G|--------2---2-------2---2---2--|
D|--------0---0-------0---0---0--|
A|-------------------------------|
E|-------------------------------|
Oh
e|------- ------- ------- -------|
B|-------------------------------|
G|7-----------7---7--------------|
D|7-----------7---7--------------|
A|5-----------5---5--------------|
E|-------------------------------|


Am Bm
e|0------ 0------ 0---0-- 0------|2------ 2---2-- ------- 2------|
B|1-------1-------1---1---1------|3-------3---3-----------3------|
G|2-------2-------2---2---2------|4-------4---4-----------4------|
D|2-------2-------2---2---2------|4-------4---4-----------4------|
A|0-------0-------0---0---0------|2-------2---2-----------2------|
E|-------------------------------|-------------------------------|
You're giving me the same old line,
e|------- ------- ------- -------|------- ------- ------- -------|
B|-------------------------------|-------------------------------|
G|-------------------------------|-------------------------------|
D|7-----------7---7--------------|9-----------9---9--------------|
A|7-----------7---7--------------|9-----------9---9--------------|
E|5-----------5---5--------------|7-----------7---7--------------|


G Em
e|------- 3---3-- 3------ 3------|------- 0---0-- ------- 0------|
B|--------3---3---3-------3------|--------0---0-----------0------|
G|--------0---0---0-------0------|--------0---0-----------0------|
D|--------0---0---0-------0------|--------2---2-----------2------|
A|--------2---2---2-------2------|--------2---2-----------2------|
E|--------3---3---3-------3------|--------0---0---0-------0------|
I'm wond'ring why,
e|------- ------- ------- -------|------- ------- ------- -------|
B|-------------------------------|-------------------------------|
G|-------------------------------|--------------------0----------|
D|5-----------5---5--------------|2-----------0---2-------2------|
A|5-----------5---5--------------|2-----------2---2--------------|
E|3-----------3---3--------------|0-----------0---0--------------|


Am
e|0------ 0------ 0---0-- 0---0--|0---0-- 0------ 0---0-- 0------|
B|1-------1-------1---1---1---1--|1---1---1-------1---1---1------|
G|2-------2-------2---2---2---2--|2---2---2-------2---2---2------|
D|2-------2-------2---2---2---2--|2---2---2-------2---2---2------|
A|0-------0-------0---0---0---0--|0---0---0-------0---0---0------|
E|-------------------------------|-------------------------------|
You hurt me then, you're back again,
e|------- ------- ------- -------|------- ------- ------- -------|
B|-------------------------------|7------------------------------|
G|-------------------------------|5------------------------------|
D|7-----------7---7--------------|7-----------7---7--------------|
A|7-----------7---7--------------|7-----------7---7--------------|
E|5-----------5---5--------------|5-----------5---5--------------|


Bm D
e|2------ 2------ ----2-- 2------|2------ 2------ 2---2-- 2------|
B|3-------3-----------3---3------|3-------3-------3---3---3------|
G|4-------4-----------4---4------|2-------2-------2---2---2------|
D|4-------4-----------4---4------|4-------4-------4---4---4------|
A|2-------2-----------2---2------|5-------5-------5---5---5------|
E|-------------------------------|-------------------------------|
No, no, no, Not a second
e|------- ------- ------- -------|------- ------- ------- -------|
B|-------------------------------|-------------------------------|
G|-------------------------------|7-----------7---7--------------|
D|9-----------9---9--------------|7-----------7---7--------------|
A|9-----------9---9--------------|5-----------5---5--------------|
E|7-----------7---7--------------|-------------------------------|


Em
e|0------ 0---0-- ----0-- 0---0--|0------ ------- ------- -------|
B|0-------0---0-------0---0---0--|0------------------------------|
G|0-------0---0-------0---0---0--|0------------------------------|
D|2-------2---2-------2---2---2--|2------------------------------|
A|2-------2---2-------2---2---2--|2------------------------------|
E|0-------0---0-------0---0---0--|0------------------------------|
time
e|------- ------- ------- -------|------- ------- ------- -------|
B|-------------------------------|-------------------------------|
G|--------------------0----------|-------------------------------|
D|2-----------0---2-------2---0--|2------------------------------|
A|2-----------2---2-------2------|2------------------------------|
E|0---------------0--------------|0------------------------------|
Not a second


G Em
e|3------ 3---3-- ----3-- 3---3--|0------ 0---0-- ----0-- 0------|
B|3-------3---3-------3---3---3--|0-------0---0-------0---0------|
G|0-------0---0-------0---0---0--|0-------0---0-------0---0------|
D|0-------0---0-------0---0---0--|2-------2---2-------2---2------|
A|2-------2---2-------2---2---2--|2-------2---2-------2---2------|
E|3-------3---3-------3---3---3--|0-------0---0-------0---0------|
time Not a second
e|------- ------- ------- -------|------- ------- ------- -------|
B|-------------------------------|-------------------------------|
G|-------------------------------|-------------------------------|
D|5-----------5---5--------------|2-----------2---2--------------|
A|5-----------5---5--------------|2-----------2---2--------------|
E|3-----------3---3--------------|0-----------0---0--------------|


G Em
e|3------ 3---3-- ----3-- 3---3--|0------ 0---0-- ----0-- 0------|
B|3-------3---3-------3---3---3--|0-------0---0-------0---0------|
G|0-------0---0-------0---0---0--|0-------0---0-------0---0------|
D|0-------0---0-------0---0---0--|2-------2---2-------2---2------|
A|2-------2---2-------2---2---2--|2-------2---2-------2---2------|
E|3-------3---3-------3---3---3--|0-------0---0-------0---0------|
time No no no no
e|------- ------- ------- -------|------- ------- ------- -------|
B|-------------------------------|-------------------------------|
G|-------------------------------|-------------------------------|
D|5-----------5---5--------------|2-----------2---2--------------|
A|5-----------5---5--------------|2-----------2---2--------------|
E|3-----------3---3--------------|0-----------0---0--------------|
.................Fade..........

G Em
e|3------ 3---3-- ----3-- 3---3--|0------ 0---0-- ----0-- 0---0--|
B|3-------3---3-------3---3---3--|0-------0---0-------0---0---0--|
G|0-------0---0-------0---0---0--|0-------0---0-------0---0---0--|
D|0-------0---0-------0---0---0--|2-------2---2-------2---2---2--|
A|2-------2---2-------2---2---2--|2-------2---2-------2---2---2--|
E|3-------3---3-------3---3---3--|0-------0---0-------0---0---0--|
no Not a second time
e|------- ------- ------- -------|------- ------- ------- -------|
B|-------------------------------|-------------------------------|
G|-------------------------------|-------------------------------|
D|5-----------5---5--------------|2-----------2---2--------------|
A|5-----------5---5--------------|2-----------2---2--------------|
E|3-----------3---3--------------|0-----------0---0--------------|
...............................................................

G
e|3------ 3---3-- ----3-- 3---3--|
B|3-------3---3-------3---3---3--|
G|0-------0---0-------0---0---0--|
D|0-------0---0-------0---0---0--|
A|2-------2---2-------2---2---2--|
E|3-------3---3-------3---3---3--|
No no no no
e|------- ------- ------- -------|
B|-------------------------------|
G|-------------------------------|
D|5-----------5---5--------------|
A|5-----------5---5--------------|
E|3-----------3---3--------------|
......................







B Bend
R Release
/ slide up
\ slide down
H hammer-on
P pull-off
~ vibrato
+ harmonic
x Mute note
. - play note like a dot in standard notation
^ - ties two notes together
(. Pause

pjvill

Submitted by pjvill at Wed 14 Dec, 2005 5:19 pm

Author: ?
Composer: ?
Publisher: ?
Language: English

Reactions

CommonCrawl [Bot]

Follow Muzikum