The Beatles

The Beatles
Norwegian Wood Vers. 4 (Guitar Tab)

------------------------------------------------------------------
THE BEATLES - NORWEGIAN WOOD (Lennon/McCartney) From RUBBER SOUL
album. Released on 3rd December 1965.

------------------------------------------------------------------

Tabbed by:PJVillanueva







I once had a girl, or should I say, she once had me...
She showed me her room, isn't it good, norwegian wood?

She asked me to stay and she told me to sit anywhere,
So I looked around and I noticed there wasn't a chair.

I sat on a rug, biding my time, drinking her wine.
We talked until two and then she said, "It's time for bed"

She told me she worked in the morning and started to laugh.
I told her I didn't and crawled off to sleep in the bath

And when I awoke, I was alone, this bird had flown
So I lit a fire, isn't it good, norwegian wood.







1st guitar uses a capo on the second
fret, except for the middle eight.
2nd guitar uses a capo on the second
fret through the whole song.




12/8


Intro

D
e|2-------- 2----2--- 2----2---|2-------- --------- ---------|
B|3---------3----3----3----3---|3-------------------3--------|
G|2---------2----2----2----2---|2--H-4--P-2---------0--------|
D|0----------------------------|--------------------0--------|
A|0----------------------------|-----------------------------|
E|-----------------------------|-----------------------------|





e|2-------- 2----2--- 2--------|--------- --------- ---------|
B|3---------3----3----3--------|----------3---------3--------|
G|2---------2----2----2--------|----------0---------0--------|
D|4----------------------------|2-------------------4--------|
A|-----------------------------|-----------------------------|
E|-----------------------------|-----------------------------|





e|2-------- 2----2--- 2--------|--------- 0-------- ---------|
B|3---------3----3----3--------|----------3---------3--------|
G|2---------2----2----2--------|----------0---------0--------|
D|0----------------------------|--------------------0--------|
A|-----------------------------|3-------------------2--------|
E|-----------------------------|-----------------------------|





e|0--H-2--- 2----2--- 2--------|2-------- 2----2--- 2----2---|
B|3---------3----3----3--------|3---------3----3----3----3---|
G|0--H-2----2----2----2--------|2---------2----2----2----2---|
D|0---------0----0----0--------|0---------0----0----0----0---|
A|0---------0----0----0--------|0---------0----0----0----0---|
E|-----------------------------|-----------------------------|





e|2-------- 2----2--- 2--------|2-------- --------- ---------|
B|3---------3----3----3--------|3-------------------3--------|
G|2---------2----2----2--------|2--H-4--P-2---------0--------|
D|0----------------------------|--------------------0--------|
A|0----------------------------|-----------------------------|
E|-----------------------------|-----------------------------|

e|5-------- --------- ---------|5H7------ 5-------- ---------|
B|-----------------------------|--------------------8--------|
G|-----------------------------|-----------------------------|
D|-----------------------------|-----------------------------|
A|-----------------------------|-----------------------------|
E|-----------------------------|-----------------------------|





e|2-------- 2----2--- 2--------|--------- --------- ---------|
B|3---------3----3----3--------|----------3---------3--------|
G|2---------2----2----2--------|----------0---------0--------|
D|4----------------------------|2-------------------4--------|
A|-----------------------------|-----------------------------|
E|-----------------------------|-----------------------------|

e|--------- --------- ---------|--------- --------- ---------|
B|7----------------------------|5-------7B8---------7--------|
G|-----------------------------|-----------------------------|
D|-----------------------------|-----------------------------|
A|-----------------------------|-----------------------------|
E|-----------------------------|-----------------------------|





e|2-------- 2----2--- 2--------|--------- 0-------- ---------|
B|3---------3----3----3--------|----------3---------3--------|
G|2---------2----2----2--------|----------0---------0--------|
D|0----------------------------|-----------------------------|
A|-----------------------------|3-------------------2--------|
E|-----------------------------|-----------------------------|

e|--------- --------- ---------|--------- 3-------- ---------|
B|3----------------------------|-----------------------------|
G|----------------------------4B5-------------------4--------|
D|-----------------------------|-----------------------------|
A|-----------------------------|-----------------------------|
E|-----------------------------|-----------------------------|





e|0--H-2--- 2----2--- 2--------|2-------- 2----2--- 2--------|
B|3---------3----3----3--------|3---------3----3----3--------|
G|0--H-2----2----2----2--------|2---------2----2----2--------|
D|0---------0----0----0--------|0---------0----0----0--------|
A|0---------0----0----0--------|0---------0----0----0--------|
E|-----------------------------|-----------------------------|

e|--------- --------- ---------|--------- --------- ---------|
B|-----------------------------|-----------------------------|
G|2----------------------------|-----------------------------|
D|-----------------------------|-----------------------------|
A|-----------------------------|-----------------------------|
E|-----------------------------|-----------------------------|



Verse

e|2-------- 2----2--- 2--------|--------- --------- ---------|
B|3---------3----3----3--------|3------------------------3---|
G|2---------2----2----2--------|2------------------------2---|
D|0---------0----0----0--------|0------------------------0---|
A|0---------0----0----0--------|0------------------------0---|
E|-----------------------------|-----------------------------|
I once had a girl,
e|--------- --------- ---------|--------- 5-------- 5--------|
B|----------3---------3--------|----------3---------3--------|
G|-----------------------------|----------2---------2--------|
D|0----------------------------|0----------------------------|
A|-----------------------------|-----------------------------|
E|-----------------------------|-----------------------------|





e|2----2--- -----2--- 2----2---|--------- --------- ---------|
B|3----3---------3----3----3---|3---------3------------------|
G|2----2---------2----2----2---|2---------2------------------|
D|0----0---------0----0----0---|0---------0------------------|
A|0----0---------0----0----0---|0---------0------------------|
E|-----------------------------|-----------------------------|
or should I
e|--------- 5-------- 5--------|--------- 5-------- 5--------|
B|----------3---------3--------|----------3---------3--------|
G|----------2---------2--------|----------2---------2--------|
D|0----------------------------|0----------------------------|
A|-----------------------------|-----------------------------|
E|-----------------------------|-----------------------------|





e|2-------- 2----2--- 2--------|--------- --------- ---------|
B|3---------3----3----3--------|3---------3---------3--------|
G|2---------2----2----2--------|2---------2---------2--------|
D|0---------0----0----0--------|0---------0---------0--------|
A|0---------0----0----0--------|0---------0---------0--------|
E|-----------------------------|-----------------------------|
say, she once had
e|--------- 5-------- 5--------|--------- 5-------- 5--------|
B|----------3---------3--------|----------3---------3--------|
G|----------2---------2--------|----------2---------2--------|
D|0----------------------------|0----------------------------|
A|-----------------------------|-----------------------------|
E|-----------------------------|-----------------------------|





e|2-------- -----2--- ---------|2-------- -----2--- 2--------|
B|3--------------3-------------|3--------------3----3--------|
G|2--------------2-------------|2--------------2----2--------|
D|0--------------0-------------|0--------------0----0--------|
A|0--------------0-------------|0--------------0----0--------|
E|-----------------------------|-----------------------------|
me...
e|--------- 5-------- 5--------|--------- 5-------- 5--------|
B|----------3---------3--------|----------3---------3--------|
G|----------2---------2--------|----------2---------2--------|
D|0----------------------------|0----------------------------|
A|-----------------------------|-----------------------------|
E|-----------------------------|-----------------------------|

e|--------- --------- ---------|--------- 3-------- ---------|
B|-----------------------------|-----------------------------|
G|-------------------------4--B|5-------------------4--------|
D|-----------------------------|-----------------------------|
A|-----------------------------|-----------------------------|
E|-----------------------------|-----------------------------|





e|2----2---------2--- 2--------|--------- --------- ---------|
B|3----3---------3----3--------|3-------------------3--------|
G|2----2---------2----2--------|2-------------------2--------|
D|0----0---------0----0--------|0-------------------0--------|
A|0----0---------0----0--------|0-------------------0--------|
E|-----------------------------|-----------------------------|
She showed me her
e|--------- 5-------- 5--------|--------- 5-------- 5--------|
B|----------3---------3--------|----------3---------3--------|
G|----------2---------2--------|----------2---------2--------|
D|0----------------------------|0----------------------------|
A|-----------------------------|-----------------------------|
E|-----------------------------|-----------------------------|

e|--------- --------- ---------|--------- --------- ---------|
B|-----------------------------|-----------------------------|
G|2----------------------------|-----------------------------|
D|-----------------------------|-----------------------------|
A|-----------------------------|-----------------------------|
E|-----------------------------|-----------------------------|





e|2----2--- -----2--- 2--------|--------- --------- ---------|
B|3----3---------3----3--------|----------3------------------|
G|2----2---------2----2--------|----------2------------------|
D|0----0---------0----0--------|----------0------------------|
A|0----0---------0----0--------|----------0------------------|
E|-----------------------------|-----------------------------|
room isn't it
e|--------- 5-------- 5--------|--------- 5-------- ---------|
B|----------3---------3--------|----------3------------------|
G|----------2---------2--------|----------2------------------|
D|0----------------------------|0----------------------------|
A|-----------------------------|-----------------------------|
E|-----------------------------|-----------------------------|





e|2-------- 2----2--- 2--------|--------- 0-------- ---------|
B|3---------3----3----3--------|----------3------------------|
G|2---------2----2----2--------|----------0------------------|
D|0---------0----0----0--------|----------0------------------|
A|0---------0----0----0--------|----------0------------------|
E|-----------------------------|-----------------------------|
good norwegian
e|--------- 5-------- 5--------|--------- 5-------- 5--------|
B|----------3---------3--------|----------3---------3--------|
G|----------2---------2--------|----------2---------2--------|
D|0----------------------------|0----------------------------|
A|-----------------------------|-----------------------------|
E|-----------------------------|-----------------------------|





e|0--H-2--- 2----2--- 2--------|2-------- 2----2--- 2--------|
B|3---------3----3----3--------|3---------3----3----3--------|
G|0--H-2----2----2----2--------|2---------2----2----2--------|
D|0---------0----0----0--------|0---------0----0----0--------|
A|0---------0----0----0--------|0---------0----0----0--------|
E|-----------------------------|-----------------------------|
wood She
e|--------- 5-------- 5--------|--------- 5-------- 5--------|
B|----------3---------3--------|----------3---------3--------|
G|----------2---------2--------|----------2---------2--------|
D|0----------------------------|0----------------------------|
A|-----------------------------|-----------------------------|
E|-----------------------------|-----------------------------|

e|--------- --------- ---------|--------- 3-------- ---------|
B|-----------------------------|-----------------------------|
G|-------------------------4--B|5-------------------4--------|
D|-----------------------------|-----------------------------|
A|-----------------------------|-----------------------------|
E|-----------------------------|-----------------------------|


Middle eight
(1st guitar isn't capoed. 2nd is)

Em
e|0-------- 0----0--- 0--------|0----0--- -----0--- -----0---|
B|0---------0----0----0--------|0----0---------0---------0---|
G|0---------0----0----0--------|0----0---------0---------0---|
D|2---------2----2----2--------|2----2---------2---------2---|
A|2---------2----2----2--------|2----2---------2---------2---|
E|0---------0----0----0--------|0----0---------0---------0---|
asked me to stay and she
Dm
e|1-------- --------- ---------|1-------- 1-------- 1--------|
B|3----------------------------|3---------3---------3--------|
G|2----------------------------|2---------2---------2--------|
D|0----------------------------|0---------0---------0--------|
A|-----------------------------|-----------------------------|
E|-----------------------------|-----------------------------|

e|--------- --------- ---------|--------- --------- ---------|
B|-----------------------------|-----------------------------|
G|2----------------------------|-----------------------------|
D|-----------------------------|-----------------------------|
A|-----------------------------|-----------------------------|
E|-----------------------------|-----------------------------|





e|0-------- 0----0--- 0--------|0----0--- -----0--- -----0---|
B|0---------0----0----0--------|0----0---------0---------0---|
G|0---------0----0----0--------|0----0---------0---------0---|
D|2---------2----2----2--------|2----2---------2---------2---|
A|2---------2----2----2--------|2----2---------2---------2---|
E|0---------0----0----0--------|0----0---------0---------0---|
told me to sit anywhere
e|1-------- --------- ---------|1-------- --------- ---------|
B|3----------------------------|3----------------------------|
G|2----------------------------|2----------------------------|
D|0----------------------------|0----------------------------|
A|-----------------------------|-----------------------------|
E|-----------------------------|-----------------------------|




A
e|5-------- 5----5--- 5--------|5-------- 5----5--- -----5---|
B|5---------5----5----5--------|5---------5----5---------5---|
G|6---------6----6----6--------|6---------6----6---------6---|
D|7---------7----7----7--------|7---------7----7---------7---|
A|7---------7----7----7--------|7---------7----7---------7---|
E|5---------5----5----5--------|5---------5----5---------5---|
G
e|3-------- --------- ---------|3-------- 3-------- 3--------|
B|3----------------------------|3---------3---------3--------|
G|4----------------------------|4---------4---------4--------|
D|5----------------------------|5---------5---------5--------|
A|-----------------------------|-----------------------------|
E|-----------------------------|-----------------------------|





e|5-------- 5----5--- -----5---|5----5--- -----5--- 5--------|
B|5---------5----5---------5---|5----5---------5----5--------|
G|6---------6----6---------6---|6----6---------6----6--------|
D|7---------7----7---------7---|7----7---------7----7--------|
A|7---------7----7---------7---|7----7---------7----7--------|
E|5---------5----5---------5---|5----5---------5----5--------|
So
e|3-------- --------- ---------|--------- --------- ---------|
B|3----------------------------|-----------------------------|
G|4----------------------------|-----------------------------|
D|5----------------------------|-----------------------------|
A|-----------------------------|-----------------------------|
E|-----------------------------|-----------------------------|




Em
e|0-------- 0----0--- -----0---|-----0--- -----0--- -----0---|
B|0---------0----0---------0---|-----0---------0---------0---|
G|0---------0----0---------0---|-----0---------0---------0---|
D|2---------2----2---------2---|-----2---------2---------2---|
A|2---------2----2---------2---|-----2---------2---------2---|
E|0---------0----0---------0---|-----0---------0---------0---|
I looked around and I
Dm
e|1-------- --------- ---------|1-------- 1-------- 1--------|
B|3----------------------------|3---------3---------3--------|
G|2----------------------------|2---------2---------2--------|
D|0----------------------------|0---------0---------0--------|
A|-----------------------------|-----------------------------|
E|-----------------------------|-----------------------------|





e|-----0--- -----0--- 0--------|0----0--- -----0--- 0--------|
B|-----0---------0----0--------|0----0---------0----0--------|
G|-----0---------0----0--------|0----0---------0----0--------|
D|-----2---------2----2--------|2----2---------2----2--------|
A|-----2---------2----2--------|2----2---------2----2--------|
E|-----0---------0----0--------|0----0---------0----0--------|
noticed there wasn't a
e|1-------- --------- ---------|1-------- --------- ---------|
B|3----------------------------|3----------------------------|
G|2----------------------------|2----------------------------|
D|0----------------------------|0----------------------------|
A|-----------------------------|-----------------------------|
E|-----------------------------|-----------------------------|




F#m7
e|2-------- 2----2--- 2--------|2----2--- -----2--- 2--------|
B|5---------5----5----5--------|5----5---------5----5--------|
G|2---------2----2----2--------|2----2---------2----2--------|
D|4---------4----4----4--------|4----4---------4----4--------|
A|4---------4----4----4--------|4----4---------4----4--------|
E|2---------2----2----2--------|2----2---------2----2--------|
chair
Em7
e|0-------- --------- ---------|0-------- 0-------- 0--------|
B|3----------------------------|3---------3---------3--------|
G|0----------------------------|0---------0---------0--------|
D|2----------------------------|2---------2---------2--------|
A|-----------------------------|-----------------------------|
E|-----------------------------|-----------------------------|




B
e|2-------- 2----2--- 2----2---|2-------- 2----2--- 2----2---|
B|4---------4----4----4----4---|4---------4----4----4----4---|
G|4---------4----4----4----4---|4---------4----4----4----4---|
D|4---------4----4----4----4---|4---------4----4----4----2---|
A|2---------2----2----2----2---|2---------2----2----2----2---|
E|-----------------------------|-----------------------------|
A
e|5-------- --------- ---------|--------- --------- ---------|
B|2----------------------------|2---------3---------5--------|
G|2----------------------------|2----------------------------|
D|2----------------------------|2----------------------------|
A|-----------------------------|-----------------------------|
E|-----------------------------|-----------------------------|

Verse
( Both guitars capoed )

Verse

D
e|2-------- 2----2--- 2--------|2-------- --------- 2--------|
B|3---------3----3----3--------|3-------------------3--------|
G|2---------2----2----2--------|2-------------------2--------|
D|0---------0----0----0--------|0-------------------0--------|
A|0---------0----0----0--------|0-------------------0--------|
E|-----------------------------|-----------------------------|
I sat on a
e|--------- 5-------- 5--------|--------- 5-------- 5--------|
B|----------3---------3--------|----------3---------3--------|
G|----------2---------2--------|----------2---------2--------|
D|0----------------------------|0----------------------------|
A|-----------------------------|-----------------------------|
E|-----------------------------|-----------------------------|

e|2-------- --------- ---------|--------- --------- ---------|
B|-----------------------------|-----------------------------|
G|-----------------------------|-----------------------------|
D|-----------------------------|-----------------------------|
A|-----------------------------|-----------------------------|
E|-----------------------------|-----------------------------|

e|--------- --------- ---------|--------- --------- ---------|
B|-----------------------------|-----------------------------|
G|-----------------------------|-----------------------------|
D|0----------------------------|-----------------------------|
A|0----------------------------|-----------------------------|
E|-----------------------------|-----------------------------|






e|2-------- -----2--- 2--------|--------- 2-------- 2--------|
B|3--------------3----3--------|3---------3---------3--------|
G|2--------------2----2--------|2---------2---------2--------|
D|0--------------0----0--------|0---------0---------0--------|
A|0--------------0----0--------|0---------0---------0--------|
E|-----------------------------|-----------------------------|
rug, biding my
e|--------- 5-------- 5--------|--------- 5-------- 5--------|
B|----------3---------3--------|----------3---------3--------|
G|----------2---------2--------|----------2---------2--------|
D|0----------------------------|0----------------------------|
A|-----------------------------|-----------------------------|
E|-----------------------------|-----------------------------|





e|2-------- 2----2--- 2--------|--------- 0-------- ---------|
B|3---------3----3----3--------|----------3------------------|
G|2---------2----2----2--------|----------0------------------|
D|0---------0----0----0--------|----------0------------------|
A|0---------0----0----0--------|----------0------------------|
E|-----------------------------|-----------------------------|
time, drinking her
e|--------- 5-------- 5--------|--------- 5-------- 5--------|
B|----------3---------3--------|----------3---------3--------|
G|----------2---------2--------|----------2---------2--------|
D|0----------------------------|0----------------------------|
A|-----------------------------|-----------------------------|
E|-----------------------------|-----------------------------|

e|--------- --------- ---------|--------- --------- ---------|
B|-----------------------------|-----------------------------|
G|-----------------------------|-----------------------------|
D|0----------------------------|-----------------------------|
A|0----------------------------|-----------------------------|
E|-----------------------------|-----------------------------|





e|2-------- -----2--- 2----2---|2-------- 2----2--- 2--------|
B|3--------------3----3----3---|3---------3----3----3--------|
G|2--------------2----2----2---|2---------2----2----2--------|
D|0--------------0----0----0---|0---------0----0----0--------|
A|0--------------0----0----0---|0---------0----0----0--------|
E|-----------------------------|-----------------------------|
wine.
e|--------- 5-------- 5--------|--------- --------- ---------|
B|----------3---------3--------|-----------------------------|
G|----------2---------2--------|----------0------------------|
D|0----------------------------|-----------------------------|
A|-----------------------------|3-------------------2--------|
E|-----------------------------|-----------------------------|






e|2-------- -----2--- 2--------|2-------- --------- ---------|
B|3--------------3----3--------|3---------3---------3--------|
G|2--------------2----2--------|2---------2---------2--------|
D|0--------------0----0--------|0---------0---------0--------|
A|0--------------0----0--------|0---------0---------0--------|
E|-----------------------------|-----------------------------|
We talked until
e|--------- 5-------- 5--------|--------- 5-------- 5--------|
B|----------3---------3--------|----------3---------3--------|
G|----------2---------2--------|----------2---------2--------|
D|0----------------------------|0----------------------------|
A|-----------------------------|-----------------------------|
E|-----------------------------|-----------------------------|

e|--------- --------- ---------|--------- --------- ---------|
B|-----------------------------|-----------------------------|
G|-----------------------------|-----------------------------|
D|0----------------------------|-----------------------------|
A|0----------------------------|-----------------------------|
E|-----------------------------|-----------------------------|





e|2-------- -----2--- 2--------|--------- 2-------- ---------|
B|3--------------3----3--------|3---------3------------------|
G|2--------------2----2--------|2---------2------------------|
D|0--------------0----0--------|0---------0------------------|
A|0--------------0----0--------|0---------0------------------|
E|-----------------------------|-----------------------------|
two and then she
e|--------- 5-------- 5--------|--------- 5-------- 5--------|
B|----------3---------3--------|----------3---------3--------|
G|----------2---------2--------|----------2---------2--------|
D|0----------------------------|0----------------------------|
A|-----------------------------|-----------------------------|
E|-----------------------------|-----------------------------|





e|2-------- 2----2--- 2--------|--------- 0-------- ---------|
B|3---------3----3----3--------|----------3------------------|
G|2---------2----2----2--------|0---------0------------------|
D|0---------0----0----0--------|0---------0------------------|
A|0---------0----0----0--------|0---------0------------------|
E|-----------------------------|-----------------------------|
said, "It's time for bed"
e|--------- 5-------- 5--------|--------- 5-------- ---------|
B|----------3---------3--------|----------3------------------|
G|----------2---------2--------|----------2------------------|
D|0----------------------------|0----------------------------|
A|-----------------------------|-----------------------------|
E|-----------------------------|-----------------------------|

e|--------- --------- ---------|--------- --------- ---------|
B|-----------------------------|-----------------------------|
G|-----------------------------|-----------------------------|
D|0----------------------------|-----------------------------|
A|0----------------------------|-----------------------------|
E|-----------------------------|-----------------------------|





e|--------- 2----2--- -----2---|2-------- 2-------- 2--------|
B|----------3----3---------3---|3---------3---------3--------|
G|2---------2----2---------2---|2---------2---------2--------|
D|0---------0----0---------0---|0---------0---------0--------|
A|0---------0----0---------0---|0---------0---------0--------|
E|-----------------------------|-----------------------------|

e|--------- 5-------- 5--------|5-------- 5-------- 5--------|
B|----------3---------3--------|3---------3---------3--------|
G|----------2---------2--------|2---------2---------2--------|
D|0----------------------------|-----------------------------|
A|-----------------------------|-----------------------------|
E|-----------------------------|-----------------------------|




e|2-------- 2----2--- 2--------|2-------- --------- 0--------|
B|3---------3----3----3--------|3-------------------3--------|
G|2---------2----2----2--------|2--H-4----2---------0--------|
D|0---------0----0----0--------|0-------------------0--------|
A|0---------0----0----0--------|-----------------------------|
E|-----------------------------|-----------------------------|

e|5-------- --------- ---------|5H7------ 5-------- ---------|
B|-----------------------------|--------------------8--------|
G|-----------------------------|-----------------------------|
D|-----------------------------|-----------------------------|
A|-----------------------------|-----------------------------|
E|-----------------------------|-----------------------------|





e|2-------- 2----2--- 2--------|--------- 0-------- ---------|
B|3---------3----3----3--------|3---------3------------------|
G|2---------2----2----2--------|0---------0------------------|
D|4----------------------------|2-------------------4--------|
A|-----------------------------|-----------------------------|
E|-----------------------------|-----------------------------|

e|--------- --------- ---------|--------- --------- ---------|
B|7----------------------------|5-------7B8---------7--------|
G|-----------------------------|-----------------------------|
D|-----------------------------|-----------------------------|
A|-----------------------------|-----------------------------|
E|-----------------------------|-----------------------------|





e|2-------- -----2--- ---------|--------- 0-------- ---------|
B|3--------------3-------------|----------3---------3--------|
G|2--------------2-------------|----------0---------0--------|
D|0--------------0-------------|--------------------0--------|
A|0--------------0-------------|3-------------------2--------|
E|-----------------------------|-----------------------------|

e|--------- --------- ---------|--------- 3-------- ---------|
B|3----------------------------|-----------------------------|
G|----------------------------4B5-------------------4--------|
D|-----------------------------|-----------------------------|
A|-----------------------------|-----------------------------|
E|-----------------------------|-----------------------------|





e|0--H-2--- 2----2--- 2----2---|2-------- 2----2--- 2--------|
B|3---------3----3----3----3---|3---------3----3----3--------|
G|0--H-2----2----2----2----2---|2---------2----2----2--------|
D|0---------0----0----0----0---|0---------0----0----0--------|
A|0---------0----0----0----0---|0---------0----0----0--------|
E|-----------------------------|-----------------------------|

e|--------- --------- ---------|--------- --------- ---------|
B|-----------------------------|-----------------------------|
G|2----------------------------|2----------------------------|
D|-----------------------------|-----------------------------|
A|-----------------------------|-----------------------------|
E|-----------------------------|-----------------------------|





e|2-------- 2----2--- 2--------|--------- --------- 0--------|
B|3---------3----3----3--------|----------3---------3--------|
G|2---------2----2----2--------|2--H-4----2---------0--------|
D|0---------0----0----0--------|----------0---------0--------|
A|0---------0----0----0--------|-----------------------------|
E|-----------------------------|-----------------------------|

e|5-------- --------- ---------|5H7------ 5-------- ---------|
B|-----------------------------|--------------------8--------|
G|-----------------------------|-----------------------------|
D|-----------------------------|-----------------------------|
A|-----------------------------|-----------------------------|
E|-----------------------------|-----------------------------|





e|2-------- 2----2--- 2--------|--------- 0-------- 0--------|
B|3---------3----3----3--------|----------3---------3--------|
G|2---------2----2----2--------|----------0---------0--------|
D|4----------------------------|2-------------------4--------|
A|-----------------------------|-----------------------------|
E|-----------------------------|-----------------------------|

e|--------- --------- ---------|--------- --------- ---------|
B|7----------------------------|5-------7B8---------7--------|
G|-----------------------------|-----------------------------|
D|-----------------------------|-----------------------------|
A|-----------------------------|-----------------------------|
E|-----------------------------|-----------------------------|





e|2-------- 2----2--- 2--------|--------- 0-------- ---------|
B|3---------3----3----3--------|----------3------------------|
G|2---------2----2----2--------|----------0------------------|
D|0---------0----0----0--------|----------0------------------|
A|-----------------------------|3-------------------2--------|
E|-----------------------------|-----------------------------|

e|--------- --------- ---------|--------- 3-------- ---------|
B|3----------------------------|-----------------------------|
G|----------------------------4B5-------------------4--------|
D|-----------------------------|-----------------------------|
A|-----------------------------|-----------------------------|
E|-----------------------------|-----------------------------|





e|0--H-2--- 2--- 2----2--------|2-------- -----2--- 2--------|
B|3---------3----3----3--------|3--------------3----3--------|
G|0--H-2----2----2----2--------|2--------------2----2--------|
D|0---------0----0----0--------|0--------------0----0--------|
A|0---------0----0----0--------|0--------------0----0--------|
E|-----------------------------|-----------------------------|
She
e|--------- --------- ---------|--------- --------- ---------|
B|-----------------------------|-----------------------------|
G|2----------------------------|-----------------------------|
D|-----------------------------|-----------------------------|
A|-----------------------------|-----------------------------|
E|-----------------------------|-----------------------------|




Middle eight
(1st guitar isn't capoed. 2nd is)

Em
e|-----0--- 0----0--- 0--------|-----0--- 0----0--- 0--------|
B|-----0----0----0----0--------|-----0----0----0----0--------|
G|-----0----0----0----0--------|-----0----0----0----0--------|
D|-----2----2----2----2--------|-----2----2----2----2--------|
A|-----2----2----2----2--------|-----2----2----2----2--------|
E|-----0----0----0----0--------|-----0----0----0----0--------|
told me she worked in the mor...
Dm
e|1-------- --------- ---------|1-------- 1-------- 1--------|
B|3----------------------------|3---------3---------3--------|
G|2----------------------------|2---------2---------2--------|
D|0----------------------------|0---------0---------0--------|
A|-----------------------------|-----------------------------|
E|-----------------------------|-----------------------------|

e|--------- --------- ---------|--------- --------- ---------|
B|-----------------------------|-----------------------------|
G|2----------------------------|-----------------------------|
D|-----------------------------|-----------------------------|
A|-----------------------------|-----------------------------|
E|-----------------------------|-----------------------------|





e|-----0--- 0----0--- 0--------|-----0--- 0----0--- 0--------|
B|-----0----0----0----0--------|-----0----0----0----0--------|
G|-----0----0----0----0--------|-----0----0----0----0--------|
D|-----2----2----2----2--------|-----2----2----2----2--------|
A|-----2----2----2----2--------|-----2----2----2----2--------|
E|-----0----0----0----0--------|-----0----0----0----0--------|
..........ning and started to laugh.
e|1-------- --------- ---------|1-------- 1-------- ---------|
B|3----------------------------|3---------3------------------|
G|2----------------------------|2---------2------------------|
D|0----------------------------|0---------0------------------|
A|-----------------------------|-----------------------------|
E|-----------------------------|-----------------------------|




A
e|--------- 5----5--- 5--------|5-------- 5----5--- 5--------|
B|----------5----5----5--------|5---------5----5----5--------|
G|----------6----6----6--------|6---------6----6----6--------|
D|----------7----7----7--------|7---------7----7----7--------|
A|----------7----7----7--------|7---------7----7----7--------|
E|----------5----5----5--------|5---------5----5----5--------|
G
e|3-------- --------- ---------|3-------- 3-------- 3--------|
B|3----------------------------|3---------3---------3--------|
G|4----------------------------|4---------4---------4--------|
D|5----------------------------|5---------5---------5--------|
A|-----------------------------|-----------------------------|
E|-----------------------------|-----------------------------|





e|5-------- 5----5--- 5----5---|5-------- 5-------- ---------|
B|5---------5----5----5----5---|5---------5------------------|
G|6---------6----6----6----6---|6---------6------------------|
D|7---------7----7----7----7---|7---------7------------------|
A|7---------7----7----7----7---|7---------7------------------|
E|5---------5----5----5----5---|5---------5------------------|
I
e|3-------- --------- ---------|3-------- 3-------- 3--------|
B|3----------------------------|3---------3---------3--------|
G|4----------------------------|4---------4---------4--------|
D|5----------------------------|5---------5---------5--------|
A|-----------------------------|-----------------------------|
E|-----------------------------|-----------------------------|




Em
e|0-------- 0----0--- 0--------|--------- 0----0--- 0--------|
B|0---------0----0----0--------|----------0----0----0--------|
G|0---------0----0----0--------|----------0----0----0--------|
D|2---------2----2----2--------|----------2----2----2--------|
A|2---------2----2----2--------|----------2----2----2--------|
E|0---------0----0----0--------|----------0----0----0--------|
told her I didn't and
Dm
e|1-------- --------- ---------|1-------- 1-------- 1--------|
B|3----------------------------|3---------3---------3--------|
G|2----------------------------|2---------2---------2--------|
D|0----------------------------|0---------0---------0--------|
A|-----------------------------|-----------------------------|
E|-----------------------------|-----------------------------|





e|--------- 0----0--- 0--------|-----0--- -----0--- 0--------|
B|----------0----0----0--------|-----0---------0----0--------|
G|----------0----0----0--------|-----0---------0----0--------|
D|----------2----2----2--------|-----2---------2----2--------|
A|----------2----2----2--------|-----2---------2----2--------|
E|----------0----0----0--------|-----0---------0----0--------|
crawled off to sleep in the bath
e|1-------- --------- ---------|1-------- 1-------- ---------|
B|3----------------------------|3---------3------------------|
G|2----------------------------|2---------2------------------|
D|0----------------------------|0---------0------------------|
A|-----------------------------|-----------------------------|
E|-----------------------------|-----------------------------|




F#m7
e|2-------- 2----2--- 2--------|2-------- 2-------- 2--------|
B|5---------5----5----5--------|5---------5---------5--------|
G|2---------2----2----2--------|2---------2---------2--------|
D|4---------4----4----4--------|4---------4---------4--------|
A|4---------4----4----4--------|4---------4---------4--------|
E|2---------2----2----2--------|2---------2---------2--------|
Em7
e|0-------- --------- ---------|0-------- 0-------- 0--------|
B|3----------------------------|3---------3---------3--------|
G|0----------------------------|0---------0---------0--------|
D|2----------------------------|2---------2---------2--------|
A|-----------------------------|-----------------------------|
E|-----------------------------|-----------------------------|




B
e|2-------- 2----2--- 2--------|2-------- --------- 2--------|
B|4---------4----4----4--------|4-------------------4--------|
G|4---------4----4----4--------|4-------------------4--------|
D|4---------4----4----4--------|4-------------------4--------|
A|2---------2----2----2--------|2-------------------2--------|
E|-----------------------------|-----------------------------|
A
e|5-------- --------- ---------|--------- --------- ---------|
B|2----------------------------|2---------3---------5--------|
G|2----------------------------|-----------------------------|
D|2----------------------------|-----------------------------|
A|-----------------------------|-----------------------------|
E|-----------------------------|-----------------------------|



Verse

D
e|2-------- 2----2--- 2--------|2-------- --------- 2--------|
B|3---------3----3----3--------|3-------------------3--------|
G|2---------2----2----2--------|2-------------------2--------|
D|0---------0----0----0--------|0-------------------0--------|
A|0---------0----0----0--------|0-------------------0--------|
E|-----------------------------|-----------------------------|
And when I a........
e|--------- 5-------- 5--------|--------- 5-------- 5--------|
B|----------3---------3--------|----------3---------3--------|
G|----------2---------2--------|----------2---------2--------|
D|0----------------------------|0----------------------------|
A|-----------------------------|-----------------------------|
E|-----------------------------|-----------------------------|

e|2-------- --------- ---------|--------- --------- ---------|
B|-----------------------------|-----------------------------|
G|-----------------------------|-----------------------------|
D|-----------------------------|-----------------------------|
A|-----------------------------|-----------------------------|
E|-----------------------------|-----------------------------|

e|--------- --------- ---------|--------- --------- ---------|
B|-----------------------------|-----------------------------|
G|-----------------------------|-----------------------------|
D|0----------------------------|-----------------------------|
A|0----------------------------|-----------------------------|
E|-----------------------------|-----------------------------|






e|2-------- -----2--- 2--------|--------- 2-------- 2--------|
B|3--------------3----3--------|3---------3---------3--------|
G|2--------------2----2--------|2---------2---------2--------|
D|0--------------0----0--------|0---------0---------0--------|
A|0--------------0----0--------|0---------0---------0--------|
E|-----------------------------|-----------------------------|
woke I was alone
e|--------- 2-------- 2--------|--------- 2-------- 2--------|
B|----------3---------3--------|----------3---------3--------|
G|----------2---------2--------|----------2---------2--------|
D|0----------------------------|0----------------------------|
A|-----------------------------|-----------------------------|
E|-----------------------------|-----------------------------|





e|2-------- 2----2--- 2--------|--------- 0-------- ---------|
B|3---------3----3----3--------|----------3------------------|
G|2---------2----2----2--------|----------0------------------|
D|0---------0----0----0--------|----------0------------------|
A|0---------0----0----0--------|----------0------------------|
E|-----------------------------|-----------------------------|
this bird had
e|--------- 5-------- 5--------|--------- 0-------- ---------|
B|----------3---------3--------|----------3------------------|
G|----------2---------2--------|----------2------------------|
D|0----------------------------|0----------------------------|
A|-----------------------------|-----------------------------|
E|-----------------------------|-----------------------------|

e|--------- --------- ---------|--------- --------- ---------|
B|-----------------------------|-----------------------------|
G|-----------------------------|-----------------------------|
D|0----------------------------|-----------------------------|
A|0----------------------------|-----------------------------|
E|-----------------------------|-----------------------------|





e|2-------- -----2--- 2----2---|2-------- 2----2--- 2--------|
B|3--------------3----3----3---|3---------3----3----3--------|
G|2--------------2----2----2---|2---------2----2----2--------|
D|0--------------0----0----0---|0---------0----0----0--------|
A|0--------------0----0----0---|0---------0----0----0--------|
E|-----------------------------|-----------------------------|
flown
e|--------- 5-------- 5--------|--------- --------- ---------|
B|----------3---------3--------|-----------------------------|
G|----------2---------2--------|----------0------------------|
D|0----------------------------|-----------------------------|
A|-----------------------------|3-------------------2--------|
E|-----------------------------|-----------------------------|






e|2-------- -----2--- 2--------|2-------- --------- ---------|
B|3--------------3----3--------|3---------3---------3--------|
G|2--------------2----2--------|2---------2---------2--------|
D|0--------------0----0--------|0---------0---------0--------|
A|0--------------0----0--------|0---------0---------0--------|
E|-----------------------------|-----------------------------|
So I lit a
e|--------- 5-------- 5--------|--------- 5-------- 5--------|
B|-----------------------------|-----------------------------|
G|----------2---------2--------|----------2---------2--------|
D|0----------------------------|0----------------------------|
A|0----------------------------|-----------------------------|
E|-----------------------------|-----------------------------|

e|--------- --------- ---------|--------- --------- ---------|
B|-----------------------------|-----------------------------|
G|-----------------------------|-----------------------------|
D|0----------------------------|-----------------------------|
A|0----------------------------|-----------------------------|
E|-----------------------------|-----------------------------|





e|2-------- -----2--- 2--------|--------- 2-------- ---------|
B|3--------------3----3--------|3---------3------------------|
G|2--------------2----2--------|2---------2------------------|
D|0--------------0----0--------|0---------0------------------|
A|0--------------0----0--------|0---------0------------------|
E|-----------------------------|-----------------------------|
fire isn't it
e|--------- 5-------- 5--------|--------- 5-------- 5--------|
B|-----------------------------|-----------------------------|
G|----------2---------2--------|----------2---------2--------|
D|0----------------------------|0----------------------------|
A|-----------------------------|-----------------------------|
E|-----------------------------|-----------------------------|





e|2-------- 2----2--- 2--------|--------- 0-------- ---------|
B|3---------3----3----3--------|----------3------------------|
G|2---------2----2----2--------|0---------0------------------|
D|0---------0----0----0--------|0---------0------------------|
A|0---------0----0----0--------|0---------0------------------|
E|-----------------------------|-----------------------------|
good norwegian
e|--------- 5-------- 5--------|--------- 5-------- ---------|
B|-----------------------------|-----------------------------|
G|----------2---------2--------|----------2------------------|
D|0----------------------------|0----------------------------|
A|-----------------------------|-----------------------------|
E|-----------------------------|-----------------------------|

e|--------- --------- ---------|--------- --------- ---------|
B|-----------------------------|-----------------------------|
G|-----------------------------|-----------------------------|
D|0----------------------------|-----------------------------|
A|0----------------------------|-----------------------------|
E|-----------------------------|-----------------------------|





e|--------- 2----2--- -----2---|2-------- 2-------- 2--------|
B|----------3----3---------3---|3---------3---------3--------|
G|2---------2----2---------2---|2---------2---------2--------|
D|0---------0----0---------0---|0---------0---------0--------|
A|0---------0----0---------0---|0---------0---------0--------|
E|-----------------------------|-----------------------------|
wood
e|--------- 5-------- 5--------|--------- --------- 5--------|
B|-----------------------------|-----------------------------|
G|----------2---------2--------|----------2---------2--------|
D|0----------------------------|0----------------------------|
A|-----------------------------|-----------------------------|
E|-----------------------------|-----------------------------|




e|2-------- 2----2--- 2--------|2-------- --------- 0--------|
B|3---------3----3----3--------|3-------------------3--------|
G|2---------2----2----2--------|2--B-4----2---------0--------|
D|0---------0----0----0--------|0-------------------0--------|
A|0---------0----0----0--------|0-------------------0--------|
E|-----------------------------|-----------------------------|

e|5-------- --------- ---------|5H7------ 5-------- ---------|
B|-----------------------------|--------------------8--------|
G|-----------------------------|-----------------------------|
D|-----------------------------|-----------------------------|
A|-----------------------------|-----------------------------|
E|-----------------------------|-----------------------------|





e|2----2--- -----2--- 2--------|0-------- 0-------- ---------|
B|3----3---------3----3--------|3---------3------------------|
G|2----2---------2----2--------|0---------0------------------|
D|0----0---------0----0--------|2-------------------4--------|
A|0----0---------0----0--------|-----------------------------|
E|-----------------------------|-----------------------------|

e|--------- --------- ---------|--------- --------- ---------|
B|7----------------------------|5-------7B8---------7--------|
G|-----------------------------|-----------------------------|
D|-----------------------------|-----------------------------|
A|-----------------------------|-----------------------------|
E|-----------------------------|-----------------------------|





e|2-------- -----2--- 2--------|--------- 0-------- 0--------|
B|3--------------3----3--------|----------3---------3--------|
G|2--------------2----2--------|----------0---------0--------|
D|0--------------0----0--------|----------0---------0--------|
A|0--------------0----0--------|3-------------------2--------|
E|-----------------------------|-----------------------------|

e|--------- --------- ---------|--------- 3-------- ---------|
B|3----------------------------|-----------------------------|
G|----------------------------4B5-------------------4--------|
D|-----------------------------|-----------------------------|
A|-----------------------------|-----------------------------|
E|-----------------------------|-----------------------------|



(.

e|2-------- --------- ---------|--------- --------- ---------|
B|3----------------------------|-----------------------------|
G|2----------------------------|-----------------------------|
D|0----------------------------|-----------------------------|
A|0----------------------------|-----------------------------|
E|-----------------------------|-----------------------------|

e|--------- --------- ---------|--------- --------- ---------|
B|-----------------------------|-----------------------------|
G|2----------------------------|-----------------------------|
D|-----------------------------|-----------------------------|
A|-----------------------------|-----------------------------|
E|-----------------------------|-----------------------------|










B Bend
R Release
/ Slide up
\ Slide down
H Hammer-on
P Pull-off
~ Vibrato
+ Harmonic
x Mute note
. Play note like a dot in standard notation
^ Ties two notes together
(. Pause

pjvill

Submitted by pjvill at Wed 14 Dec, 2005 5:18 pm

Frank Potters

Last updated by Frank Potters at Tue 15 Aug, 2017 1:50 am

Author: ?
Composer: ?
Publisher: ?
Language: English

Reactions

CommonCrawl [Bot]

Follow Muzikum