The Beatles

The Beatles
No Reply Ver 2 (Guitar tab)

-------------------------------------------------------------------

THE BEATLES - NO REPLY (Lennon/McCartney) from BEATLES FOR SALE
album. Released on December 4th 1964.


-------------------------------------------------------------------

Tabbed by: PJVillanueva






This happened once before
When I came to your door No reply

They said it wasn't you
But I saw you peep through your window

I saw the light I saw the light

I know that you saw me
As I looked up to see your face

*
I tried to telephone
They said you were not home That's a lie

'Cos I know where you've been
I saw you walk in your door

I nearly died I nearly died

'Cos you walked hand in hand
With another man in my place


If I were you I'd realise that I
Love you more than any other guy

An' I'll forgive the lies that I
Heard before when you gave me no reply *


No reply No reply





e|------- ------- ------- -------|------- ------- ------- -------|
B|-------------------------------|-------------------------------|
G|-------------------------------|-------------------------------|
D|-------------------------------|-------------------------------|
A|-------------------------------|-------------------------------|
E|-------------------------------|-------------------------------|
This happened once be..

F6 G
e|1---1-- 1------ 1---1-- 1---1--|3---3-- 3---3-- 3---3-- 3---3--|
B|3---3---3-------3---3---3---3--|3---3---3---3---3---3---3---3--|
G|2---2---2-------2---2---2---2--|0---0---0---0---0---0---0---0--|
D|1---1---1-------1---1---1---1--|0---0---0---0---0---0---0---0--|
A|3---3---3-------3---3---3---3--|2---2---2---2---2---2---2---2--|
E|1---1---1-------1---1---1---1--|3---3---3---3---3---3---3---3--|
fore when I came to your door no reply

C
e|0---0-- 0---0-- ----0-- 0---0--|0---0-- 0---0-- 0---0-- 0------|
B|1---1---1---1-------1---1---1--|1---1---1---1---1---1---1------|
G|0---0---0---0-------0---0---0--|0---0---0---0---0---0---0------|
D|2---2---2---2-------2---2---2--|2---2---2---2---2---2---2------|
A|3---3---3---3-------3---3---3--|3---3---3---3---3---3---3------|
E|-------------------------------|-------------------------------|
They said it wasn't

F6 G
e|1---1-- 1------ 1---1-- 1------|3---3-- 3---3-- ----3-- -------|
B|3---3---3-------3---3---3------|3---3---3---3-------3----------|
G|2---2---2-------2---2---2------|0---0---0---0-------0----------|
D|1---1---1-------1---1---1------|0---0---0---0-------0----------|
A|3---3---3-------3---3---3------|2---2---2---2-------2----------|
E|1---1---1-------1---1---1------|3---3---3---3-------3----------|
you but I saw you peep through your

C Am
e|----0-- 0---0-- ----0-- 0---0--|----0-- 0---0-- 0------ ----0--|
B|----1---1---1-------1---1---1--|----1---1---1---1-----------1--|
G|----0---0---0-------0---0---0--|----0---0---0---0-----------2--|
D|----2---2---2-------2---2---2--|----2---2---2---2-----------2--|
A|----3---3---3-------3---3---3--|----3---3---3---3-----------0--|
E|-------------------------------|----------------3--------------|
window I saw the light

Em Fmaj7b5
e|------- 0------ 0---0-- 0---0--|------- 0------ 0---0-- 0---0--|
B|--------1-------1---1---1---0--|--------0-------0---0---0---0--|
G|--------2-------2---2---2---0--|--------0-------0---0---0---2--|
D|--------2-------2---2---2---2--|--------2-------2---2---2---3--|
A|--------0-------0---0---0---2--|--------2-------2---2---2---3--|
E|----------------------------0--|--------0-------0---0---0---1--|
I saw the light

Em
e|------- 0------ 0---0-- ----0--|------- 0------ 0---0-- 0---0--|
B|--------0-------0---0-------0--|--------0-------0---0---0---0--|
G|--------2-------2---2-------0--|--------0-------0---0---0---0--|
D|--------3-------3---3-------2--|--------2-------2---2---2---2--|
A|--------3-------3---3-------2--|--------2-------2---2---2---2--|
E|--------1-------1---1-------0--|--------0-------0---0---0---0--|
I know that you saw

Dm G6
e|1------ 1------ 1---1-- -------|3------ 3------ 3---3-- -------|
B|3-------3-------3---3----------|5-------5-------5---5----------|
G|2-------2-------2---2----------|4-------4-------4---4----------|
D|0-------0-------0---0----------|3-------3-------3---3----------|
A|-------------------------------|5-------5-------5---5----------|
E|-------------------------------|3-------3-------3---3----------|
me 'cause I looked up to see your

C
e|----0-- 0---0-- ----0-- 0---0--|----0-- 0---0-- ----0-- 0------|
B|----1---1---1-------1---1---1--|----1---1---1-------1---1------|
G|----0---0---0-------0---0---0--|----0---0---0-------0---0------|
D|----2---2---2-------2---2---2--|----2---2---2-------2---2------|
A|----3---3---3-------3---3---3--|----3---3---3-------3---3------|
E|----3---3---3-------3---3---3--|----3---3---3-------3---3------|
face I tried to tele..

F6 G
e|1------ 1------ ------- 1------|3------ 3---3-- ----3-- 3------|
B|3-------3---------------3------|3-------3---3-------3---3------|
G|2-------2---------------2------|0-------0---0-------0---0------|
D|1-------1---------------1------|0-------0---0-------0---0------|
A|3-------3---------------3------|2-------2---2-------2---2------|
E|1-------1---------------1------|3-------3---3-------3---3------|
phone they said you were not home that's a

C
e|0---0-- 0---0-- ----0-- ----0--|0---0-- 0------ 0------ 0------|
B|1---1---1---1-------1-------1--|1---1---1-------1-------1------|
G|0---0---0---0-------0-------0--|0---0---0-------0-------0------|
D|2---2---2---2-------2-------2--|2---2---2-------2-------2------|
A|3---3---3---3-------3-------3--|3---3---3-------3-------3------|
E|3---3---3---3-------3-------3--|3---3---3-------3-------3------|
lie 'cause I know where you've

F6 G6
e|1---1-- 1------ 1---1-- ----1--|3---3-- 3---3-- ----3-- 3------|
B|3---3---3-------3---3-------3--|5---5---5---5-------5---5------|
G|2---2---2-------2---2-------2--|4---4---4---4-------4---4------|
D|1---1---1-------1---1-------1--|3---3---3---3-------3---3------|
A|3---3---3-------3---3-------3--|5---5---5---5-------5---5------|
E|1---1---1-------1---1-------1--|3---3---3---3-------3---3------|
been I saw you walk in your

C Am
e|0---0-- ----5-- ----5-- 5---5--|5------ 5------ 0------ ----0--|
B|1---1-------5-------5---5---5--|5-------5-------1-----------1--|
G|0---0-------5-------5---5---5--|5-------5-------0-----------2--|
D|2---2-------5-------5---5---5--|5-------5-------2-----------2--|
A|3---3-------3-------3---3---3--|3-------3-------3-----------0--|
E|3---3--------------------------|----------------3--------------|
door I nearly died

Em Fmaj7b5
e|------- 0------ 0---0-- ----0--|------- 0------ 0---0-- 0---0--|
B|--------1-------1---1-------0--|--------0-------0---0---0---0--|
G|--------2-------2---2-------0--|--------0-------0---0---0---2--|
D|--------2-------2---2-------2--|--------2-------2---2---2---3--|
A|--------0-------0---0-------2--|--------2-------2---2---2---3--|
E|----------------------------0--|--------0-------0---0---0---1--|
I nearly died

Em
e|------- 0------ 0---0-- 0---0--|------- 0------ 0---0-- 0---0--|
B|--------0-------0---0---0---0--|--------0-------0---0---0---0--|
G|--------2-------2---2---2---0--|--------0-------0---0---0---0--|
D|--------3-------3---3---3---2--|--------2-------2---2---2---2--|
A|--------3-------3---3---3---2--|--------2-------2---2---2---2--|
E|--------1-------1---1---1---0--|--------0-------0---0---0---0--|
'cause you walked hand in

F6 G6
e|------- 1------ 1---1-- 1------|3------ 3------ 3---3-- 3------|
B|--------3-------3---3---3------|5-------5-------5---5---5------|
G|--------2-------2---2---2------|4-------4-------4---4---4------|
D|--------1-------1---1---1------|3-------3-------3---3---3------|
A|--------3-------3---3---3------|5-------5-------5---5---5------|
E|--------1-------1---1---1------|3-------3-------3---3---3------|
hand with another man in my

C
e|0------ 0------ 0---0-- ----0--|0------ 0------ ----0-- ----0--|
B|1-------1-------1---1-------1--|1-------1-----------1-------1--|
G|0-------0-------0---0-------0--|0-------0-----------0-------0--|
D|2-------2-------2---2-------2--|2-------2-----------2-------2--|
A|3-------3-------3---3-------3--|3-------3-----------3-------3--|
E|3-------3-------3---3-------3--|3-------3-----------3-------3--|
place If I were



E
e|0------ 0------ 0---0-- 0---0--|0------ 0------ 0---0-- 0------|
B|1-------1-------1---1---1---1--|0-------0-------0---0---0------|
G|0-------0-------0---0---0---0--|1-------1-------1---1---1------|
D|2-------2-------2---2---2---2--|2-------2-------2---2---2------|
A|3-------3-------3---3---3---3--|2-------2-------2---2---2------|
E|3-------3-------3---3---3---3--|0------------------------------|
you I'd realise that

A
e|0------ 0------ 0---0-- -------|0------ 0------ 0---0-- 0---0--|
B|2-------2-------2---2----------|2-------2-------2---2---2---2--|
G|2-------2-------2---2----------|2-------2-------2---2---2---2--|
D|2-------2-------2---2----------|2-------2-------2---2---2---2--|
A|0-------0-------0---0----------|0-------0-------0---0---0---0--|
E|-------------------------------|-------------------------------|
I love you

Dm F
e|1------ 1------ 1---1-- 1------|1------ 1------ 1---1-- 1------|
B|3-------3-------3---3---3------|1-------1-------1---1---1------|
G|2-------2-------2---2---2------|2-------2-------2---2---2------|
D|0-------0-------0---0---0------|3-------3-------3---3---3------|
A|-------------------------------|3-------3-------3---3---3------|
E|-------------------------------|1-------1-------1---1---1------|
more than a.......ny o.......ther

C
e|0------ ----0-- 0---0-- 0---0--|0------ 0------ 0---0-- 0------|
B|1-----------1---1---1---1---1--|1-------1-------1---1---1------|
G|0-----------0---0---0---0---0--|0-------0-------0---0---0------|
D|2-----------2---2---2---2---2--|2-------2-------2---2---2------|
A|3-----------3---3---3---3---3--|3-------3-------3---3---3------|
E|3-----------3---3---3---3---3--|3-------3-------3---3---3------|
guy and I'll for..

E
e|0------ 0------ 0---0-- 0---0--|0------ 0------ 0---0-- 0---0--|
B|1-------1-------1---1---1---1--|0-------0-------0---0---0---0--|
G|0-------0-------0---0---0---0--|1-------1-------1---1---1---1--|
D|2-------2-------2---2---2---2--|2-------2-------2---2---2---2--|
A|3-------3-------3---3---3---3--|2-------2-------2---2---2---2--|
E|3-------3-------3---3---3---3--|0-------0-------0---0---0---0--|
give the lies that

A
e|0------ 0------ 0---0-- ----0--|0------ 0------ 0---0-- 0------|
B|2-------2-------2---2-------2--|2-------2-------2---2---2------|
G|2-------2-------2---2-------2--|2-------2-------2---2---2------|
D|2-------2-------2---2-------2--|2-------2-------2---2---2------|
A|0-------0-------0---0-------0--|0-------0-------0---0---0------|
E|-------------------------------|-------------------------------|
I heard be..

Dm F
e|1------ 1------ 1---1-- 1------|1------ 1------ 1---1-- 1------|
B|3-------3-------3---3---3------|1-------1-------1---1---1------|
G|2-------2-------2---2---2------|2-------2-------2---2---2------|
D|0-------0-------0---0---0------|3-------3-------3---3---3------|
A|-------------------------------|3-------3-------3---3---3------|
E|-------------------------------|1-------1-------1---1---1------|
fore when you gave me no re.....

C
e|0------ 0---0-- ----0-- ----0--|0------ 0------ 0---0-- 0------|
B|1-------1---1-------1-------1--|1-------1-------1---1---1------|
G|0-------0---0-------0-------0--|0-------0-------0---0---0------|
D|2-------2---2-------2-------2--|2-------2-------2---2---2------|
A|3-------3---3-------3-------3--|3-------3-------3---3---3------|
E|3-------3---3-------3-------3--|3-------3-------3---3---3------|
ply I tried to tele..



F6 G6
e|1------ 1---1-- ----1-- 1------|3------ 3---3-- ----3-- 3------|
B|3-------3---3-------3---3------|5-------5---5-------5---5------|
G|2-------2---2-------2---2------|4-------4---4-------4---4------|
D|1-------1---1-------1---1------|3-------3---3-------3---3------|
A|3-------3---3-------3---3------|5-------5---5-------5---5------|
E|1-------1---1-------1---1------|3-------3---3-------3---3------|
phone they said you were not home that's a

C
e|0------ 0---0-- ----0-- 0---0--|0---0-- 0------ 0---0-- 0------|
B|1-------1---1-------1---1---1--|1---1---1-------1---1---1------|
G|0-------0---0-------0---0---0--|0---0---0-------0---0---0------|
D|2-------2---2-------2---2---2--|2---2---2-------2---2---2------|
A|3-------3---3-------3---3---3--|3---3---3-------3---3---3------|
E|3-------3---3-------3---3---3--|3---3---3-------3---3---3------|
lie 'cause I know where you've

F6 G6
e|1------ 1------ ----1-- 1------|3---3-- 3------ 3---3-- 3---3--|
B|3-------3-----------3---3------|5---5---5-------5---5---5---5--|
G|2-------2-----------2---2------|4---4---4-------4---4---4---4--|
D|1-------1-----------1---1------|3---3---3-------3---3---3---3--|
A|3-------3-----------3---3------|5---5---5-------5---5---5---5--|
E|1-------1-----------1---1------|3---3---3-------3---3---3---3--|
been and I saw you walk in your

C Am
e|0---0-- 0---0-- ----0-- 0------|0------ 0------ 0-----------0--|
B|1---1---1---1-------1---1------|1-------1-------1-----------1--|
G|0---0---0---0-------0---0------|0-------0-------0-----------2--|
D|2---2---2---2-------2---2------|2-------2-------2-----------2--|
A|3---3---3---3-------3---3------|3-------3-------3-----------0--|
E|-------------------------------|----------------3--------------|
door I nearly died

Em Fmaj7b5
e|------- 0------ 0---0-- 0---0--|------- 0------ 0---0-- 0---0--|
B|--------1-------1---1---1---0--|--------0-------0---0---0---0--|
G|--------2-------2---2---2---0--|--------0-------0---0---0---2--|
D|--------2-------2---2---2---2--|--------2-------2---2---2---3--|
A|--------0-------0---0---0---2--|--------2-------2---2---2---3--|
E|----------------------------0--|--------0-------0---0---0---1--|
I nearly died

Em
e|------- 0------ 0---0-- 0---0--|------- 0------ 0---0-- 0---0--|
B|--------0-------0---0---0---0--|--------0-------0---0---0---0--|
G|--------2-------2---2---2---0--|--------0-------0---0---0---0--|
D|--------3-------3---3---3---2--|--------2-------2---2---2---2--|
A|--------3-------3---3---3---2--|--------2-------2---2---2---2--|
E|--------1-------1---1---1---0--|--------0-------0---0---0---0--|
'cause you walked hand in

F6 G6
e|1------ 1------ 1---1-- 1------|3------ 3------ 3---3-- 3------|
B|3-------3-------3---3---3------|5-------5-------5---5---5------|
G|2-------2-------2---2---2------|4-------4-------4---4---4------|
D|1-------1-------1---1---1------|3-------3-------3---3---3------|
A|3-------3-------3---3---3------|5-------5-------5---5---5------|
E|1-------1-------1---1---1------|3-------3-------3---3---3------|
hand with another man in my

C Am
e|0------ 0---0-- ----0-- 0---0--|0------ 0------ 0------ ----0--|
B|1-------1---1-------1---1---1--|1-------1-------1-----------1--|
G|0-------0---0-------0---0---0--|0-------0-------0-----------2--|
D|2-------2---2-------2---2---2--|2-------2-------2-----------2--|
A|3-------3---3-------3---3---3--|3-------3-------3-----------0--|
E|-------------------------------|----------------3--------------|
place No re........ply

Em Fmaj7b5
e|------- 0------ 0---0-- 0---0--|------- 0------ 0---0-- 0---0--|
B|--------1-------1---1---1---0--|--------0-------0---0---0---0--|
G|--------2-------2---2---2---0--|--------0-------0---0---0---2--|
D|--------2-------2---2---2---2--|--------2-------2---2---2---3--|
A|--------0-------0---0---0---2--|--------2-------2---2---2---3--|
E|----------------------------0--|--------0-------0---0---0---1--|
No re........ply
(.
C9
e|------- 0------ 0---0-- 0---3--|------- ------- ------- -------|
B|--------0-------0---0---0---3--|-------------------------------|
G|--------2-------2---2---2---0--|-------------------------------|
D|--------3-------3---3---3---2--|-------------------------------|
A|--------3-------3---3---3---3--|-------------------------------|
E|--------1-------1---1---1------|-------------------------------|








B Bend
R Release
/ Slide up
\ Slide down
H Hammer-on
P Pull-off
~ Vibrato
+ Harmonic
x Mute note
. Play note like a dot in standard notation
^ Ties two notes together
(. Pause

pjvill

Submitted by pjvill at Wed 14 Dec, 2005 5:18 pm

Author: ?
Composer: ?
Publisher: ?
Language: English

Reactions

CommonCrawl [Bot]

Follow Muzikum