The Beatles

The Beatles
Michelle Ver 5 (Guitar tab)

-------------------------------------------------------------

The Beatles - Michelle from Rubber Soul album.(Released on
Decemberthe 3rd of 1965.)


-------------------------------------------------------------

Tabbed by:PJVillanueva





The rythm guitars in this song were recorded with a capo on
the fifth fret.(The F chord will then be played as if it was
a C chord)




Chords: 5th fret
------
F 332010
Bbm7 133044
Eb x13331
D- xx1212
C 320033
Fm x35543
Ab7 x11 10 11 9
Db 466544
C+5 xx5443
Fm7 x35343
Fm6 xx5243
Bbm9 133113
Bm 133111
Bbm 131114



Chorus


F Bbm7
Michelle, my belle,

Eb D- C D- C
This are words that go together well, my Michelle

F Bbm7
Michelle, my belle,

Eb D- C
Sont les mots qui vont tres bien ensemble,

D- C
Tres bien ensemble




Fm Ab7
I love you, I love you, I love you

Db
That's all I want to say

C Fm
Until I find a way

Fm C+5 Fm7 Fm6
I will say the only words I know

Bbm9 Bbm Bbm7 C
That you'll understand.





F Bbm7
Michelle, my belle

Eb D- C
Sont les mots qui vont tres bien ensemble

D- C
Tres bien ensemble





Fm Ab7
I need you, I need you, I need you

Db
I need to make you see

C Fm
Oh what you mean to me

Fm C+5 Fm7 Fm6 Bbm9 Bbm Bbm7 C F
Until I do I'm hoping you will know what I mean



I love you.
Solo F Bbm7 Eb D-
C D- C




Fm Ab7
I want you, I want you, I want you

Db
I think you know by now

C Fm
I'll get to you somehow

Fm C+5 Fm7 Fm6 Bbm9 Bbm Bbm7 C
Until I do I'm telling you so you'll understand



F Bbm7
Michelle, my belle

Eb D- C
Sont les mots qui vont tres bien ensemble

D- C
Tres bien ensemble

Fm C+5 Fm7 Fm6
And I will say the only words I know

Bbm9 Bbm Bbm7 C F (Ending solo) Bbm7
That you'll understand, my Michelle.


Eb D- C D- C F Bbm7.......





Intro


e|------ 8----- ------ 8-----|------ 8------ ------ 8----|
B|-------9-------------9-----|-------9--------------9----|
G|10------------9------------|8--------------7-----------|
D|---------------------------|---------------------------|
A|---------------------------|---------------------------|
E|---------------------------|---------------------------|




e|------ 8----- 6----- ----/-|8----- 8---/- 8----8 8-----|
B|-------6------6------9---/-|8------8---/--8----8-8-----|
G|6-------------6------6-----|5-------------5------------|
D|---------------------------|---------------------------|
A|---------------------------|---------------------------|
E|---------------------------|---------------------------|







Solo


e|------ ------ ------ ------|------ ------ ------ ------|
B|---------------------------|---------------------------|
G|---------------------------|---------------------------|
D|-----------5--7--------8-10|11---\--------6------------|
A|8--------8-----------------|---------------------------|
E|---------------------------|---------------------------|



e|------ ------ ------ ------|------ ------ ------ ------|
B|---------------------------|---------------------------|
G|---------------------------|---------------------------|
D|5--------5--6--8-----------|------------5--6-----------|
A|---------------------6-----|8--------8-----------0-----|
E|---------------------------|---------------------------|



e|------ ------ ------ ------|------ ------ ------ ------|
B|---------------------------|---------------------------|
G|---------------------------|--------------------------0|
D|------------------1--------|---------------------2--3--|
A|2-------------0--------3---|2-----------------0--------|
E|---------------------------|----------------3----------|



e|------ ------ ------ ------|
B|---------------------------|
G|---------------------------|
D|1--------------------------|
A|---------------------------|
E|---------------------------|





Ending

e|------ ------ ------ ------|------ ------ ------ ------|
B|---------------------------|---------------------------|
G|---------------------------|---------------------------|
D|-----------5--7--------8-10|11---\--------6------------|
A|8--------8-----------------|---------------------------|
E|---------------------------|---------------------------|




e|------ ------ ------ ------|------ ------ ------ ------|
B|---------------------------|---------------------------|
G|---------------------------|---------------------------|
D|5--------5--6--8-----------|------------5--6-----------|
A|---------------------6-----|8--------8-----------0-----|
E|---------------------------|---------------------------|



e|------ ------ ------ ------|------ ------ ------ ------|
B|---------------------------|---------------------------|
G|---------------------------|--------------------------0|
D|------------------1--------|---------------------2--3--|
A|2-------------0--------3---|2-----------------0--------|
E|---------------------------|----------------3----------



e|------ ------ ------ ------|------ ------ ------ ------|
B|---------------------------|---------------------------|
G|---------------------------|---------------------------|
D|-----------5--7--------8-10|11---\--------6------------|
A|8--------8-----------------|---------------------------|
E|---------------------------|---------------------------|


Fading
e|------ ------ ------ ------|------ ------ ------ ------|
B|---------------------------|---------------------------|
G|---------------------------|---------------------------|
D|5--------5--6--8-----------|------------5--6-----------|
A|---------------------6-----|8--------8-----------0-----|
E|---------------------------|---------------------------|








Rythm guitar ending

(capo on 5th fret)
V
e|3----- 3----- 3----- 3-----|------ 4----- 4----- 4-----|
B|1------1------1------1-----|-------4------4------4-----|
G|0------0------0------0-----|-------1------1------1-----|
D|2------2------2------2-----|-------1------1------1-----|
A|3------3------3------3-----|-------3------3------3-----|
E|---------------------------|-------1------1------1-----|




e|------ 3----- ------ ------|------ ------ ------ ------|
B|3------3------3------------|1-/----4------7-\----4-----|
G|3------3------3------3-----|2-/----5------8-\----5-----|
D|3------3------3------3-----|1-/----4------7-\----4-----|
A|1------1------1------1-----|---------------------------|
E|---------------------------|---------------------------|




e|3----- 3----3 2----- 2----2|3----- 3----3 3----- ------|
B|3------3----0-1------1----1|3------3----3-3------------|
G|0------0----0-2------2----2|0------0----0-0------------|
D|--------------1------1----1|---------------------------|
A|---------------------------|---------------------------|
E|---------------------------|---------------------------|


Fading.....

e|3------ ----3- 3----- 3----|------ 4----- ------ 4-----|
B|1-----------1--1------1----|-------4-------------4-----|
G|0-----------0--0------0----|-------1-------------1-----|
D|2-----------2--2------2----|-------1-------------1-----|
A|3-----------3--3------3----|-------3-------------3-----|
E|---------------------------|-------1-------------1-----|







B Bend
R Release
/ Slide up
\ Slide down
H Hammer-on
P Pull-off
~ Vibrato
+ Harmonic
x Mute note
. Play note like a dot in standard notation
^ Ties two notes together
(. Pause

pjvill

Submitted by pjvill at Wed 14 Dec, 2005 5:17 pm

Author: ?
Composer: ?
Publisher: ?
Language: English

Reactions

CommonCrawl [Bot]

Follow Muzikum