The Beatles

The Beatles
Lucy In The Sky With Diamonds Ver 4 (Guitar tab)

---------------------------------------------------------------------

THE BEATLES - LUCY IN THE SKY WITH DIAMONDS (Lennon/McCartney) From
SGT. PEPPER'S LONELY HEARTS CLUB BAND album. Released
1st June 1967.


---------------------------------------------------------------------

Tabbed by:PJVillanueva







Picture yourself in a boat on a river,
With tangerine trees and marmalade skies
Somebody calls you, you answer quite slowly,
A girl with kaleidoscope eyes.

Cellophane flowers of yellow and green,
Towering over your head.
Look for the girl with the sun in her eyes,
And she's gone.

REFRAIN
Lucy in the sky with diamonds.
Lucy in the sky with diamonds.
Lucy in the sky with diamonds.
Ah... Ah...


Follow her down to a bridge by a fountain
Where rocking horse people eat marshmallow pies,
Everyone smiles as you drift past the flowers,
That grow so incredibly high.
Newspaper taxis appear on the shore,
Waiting to take you away.
Climb in the back with your head in the clouds,
And you're gone.

{REFRAIN}

Picture yourself on a train in a station,
With plasticine porters with looking glass ties,
Suddenly someone is there at the turnstyle,
The girl with the kaleidoscope eyes.

{REFRAIN}...







A A7 A6
e|------ ------ 12----|------ 12---- ------|------ ------ 12----|
B|-------10-----------|--------------10----|-------10-----------|
G|-9------------------|12------------------|11------------------|
D|--------------------|--------------------|--------------------|
A|--------------------|--------------------|--------------------|
E|--------------------|--------------------|--------------------|


Aaug5sus4 Aaug5
e|------ 10-9-- ------|
B|--------------10----|
G|10------------------|
D|--------------------|
A|--------------------|
E|--------------------|


A A7 A6
e|------ ------ 12----|------ 12---- ------|------ ------ 12----|
B|-------10-----------|--------------10----|-------10-----------|
G|-9------------------|12------------------|11------------------|
D|--------------------|--------------------|--------------------|
A|--------------------|--------------------|--------------------|
E|--------------------|--------------------|--------------------|
Pic....ture your...self in a boat on a


Aaug5sus4 Aaug5 A A7
e|------ 10-9-- ------|------ ------ 12----|------ 12---- ------|
B|--------------10----|-------10-----------|--------------10----|
G|10------------------|-9------------------|12------------------|
D|--------------------|--------------------|--------------------|
A|--------------------|--------------------|--------------------|
E|--------------------|--------------------|--------------------|
river with tan....ge.....rine trees and

A6 F5
e|------ ------ 12----|------ ------ ------|------ ------ ------|
B|-------10-----------|13-----10-----13----|10------------------|
G|11------------------|10------------------|10------------------|
D|--------------------|--------------------|--------------------|
A|--------------------|--------------------|--------------------|
E|--------------------|--------------------|--------------------|
mar....malade skies

A A7 A6
e|------ ------ 12----|------ 12---- ------|------ ------ 12----|
B|-------10-----------|--------------10----|-------10-----------|
G|-9------------------|12------------------|11------------------|
D|--------------------|--------------------|--------------------|
A|--------------------|--------------------|--------------------|
E|--------------------|--------------------|--------------------|
Some...body calls you, you answer quite

Aaug5sus4 Aaug5 A A7
e|------ 10-9-- ------|------ ------ 12----|------ 12---- ------|
B|--------------10----|-------10-----------|--------------10----|
G|10------------------|-9------------------|12------------------|
D|--------------------|--------------------|--------------------|
A|--------------------|--------------------|--------------------|
E|--------------------|--------------------|--------------------|
slowly a girl with ka....lei.....dos....cope

A Dm
e|-9---- 12---- -9----|12---- -9---- 12----|------ 13---- 10----|
B|10------------------|10------------------|-------10-----------|
G|--------------------|--------------------|--------------------|
D|--------------------|--------------------|--------------------|
A|--------------------|--------------------|--------------------|
E|--------------------|--------------------|--------------------|
eyes

Bb
e|13---- ------ ------|1----- 1----- 1-----|1----- 1----- 1-----|
B|--------------------|3------3------3-----|3------3------3-----|
G|--------------------|3------3------3-----|3------3------3-----|
D|--------------------|3------3------3-----|3------3------3-----|
A|--------------------|1------1------1-----|1------1------1-----|
E|--------------------|--------------------|--------------------|
Cellophane flowers of
e|------ ------ ------|------ ------ ------|------ ------ ------|
B|--------------------|--------------------|--------------------|
G|--------------------|5B7----7------7-----|7------7------7-----|
D|--------------------|--------------------|--------------------|
A|--------------------|--------------------|--------------------|
E|--------------------|--------------------|--------------------|



C F
e|0----- 0----- 0-----|0----- 0----- 0-----|1----- 1----- 1-----|
B|1------1------1-----|1------1------1-----|1------1------1-----|
G|0------0------0-----|0------0------0-----|2------2------2-----|
D|2------2------2-----|2------2------2-----|3------3------3-----|
A|3------3------3-----|3------3------3-----|3------3------3-----|
E|--------------------|--------------------|1------1------1-----|
yellow and green towering
e|------ ------ ------|------ ------ ------|------ ------ ------|
B|--------------------|--------------------|--------------------|
G|5----B-7------7-----|7-------------------|5B7----7------7-----|
D|--------------------|--------------------|--------------------|
A|--------------------|--------------------|--------------------|
E|--------------------|--------------------|--------------------|


Bb
e|1----- 1----- 1-----|1----- 1----- 1-----|1----- 1----- 1-----|
B|1------1------1-----|3------3------3-----|3------3------3-----|
G|2------2------2-----|3------3------3-----|3------3------3-----|
D|3------3------3-----|3------3------3-----|3------3------3-----|
A|3------3------3-----|1------1------1-----|1------1------1-----|
E|1------1------1-----|--------------------|--------------------|
over your head.
e|------ ------ ------|------ ------ ------|------ ------ ------|
B|--------------------|--------------------|--------------------|
G|5B7----7------7-----|7-----R---5---3-----|--------------------|
D|--------------------|--------------------|--------------------|
A|--------------------|--------------------|--------------------|
E|--------------------|--------------------|--------------------|


C G
e|0----- 0----- 0-----|0----- 0----- 0-----|3----- 3----- 3-----|
B|1------1------1-----|1------1------1-----|3------3------3-----|
G|0------0------0-----|0------0------0-----|0------0------0-----|
D|2------2------2-----|2------2------2-----|0------0------0-----|
A|3------3------3-----|3------3------3-----|2------2------2-----|
E|--------------------|--------------------|3------3------3-----|
Look for the girl with the sun in her
e|------ ------ ------|------ ------ ------|------ ------ ------|
B|--------------------|--------------------|--------------------|
G|5B7----7------7-----|7------7------7-----|5B7----7------7-----|
D|--------------------|--------------------|--------------------|
A|--------------------|--------------------|--------------------|
E|--------------------|--------------------|--------------------|



D X X X
e|3----- 3----- 3-----|2------ ------- ------- -------|
B|3------3------3-----|3------------------------------|
G|0------0------0-----|2------------------------------|
D|0------0------0-----|0------------------------------|
A|2------2------2-----|0------------------------------|
E|3------3------3-----|-------------------------------|
eyes and she's gone
e|------ ------ ------|------- ------- ------- -------|
B|--------------------|-------------------------------|
G|7---R--5------4-----|-------------------------------|
D|--------------------|7------------------------------|
A|--------------------|-------------------------------|
E|--------------------|-------------------------------|


G C D
e|3---3-- 3---3-- 0---0-- 0---0--|2---2-- 2---2-- 2---2-- 2---2--|
B|3---3---3---3---1---1---1---1--|3---3---3---3---3---3---3---3--|
G|0---0---0---0---0---0---0---0--|2---2---2---2---2---2---2---2--|
D|0---0---0---0---2---2---2---2--|0---0---0---0---0---0---0---0--|
A|2---2---2---2---3---3---3---3--|-------------------------------|
E|3---3---3---3------------------|-------------------------------|
Lucy in the sky with diamonds
e|------- ------- ------- -------|------- ------- ------- -------|
B|-------------------------------|-------------------------------|
G|-------------------------------|-------------------------------|
D|------------------------2------|-------------------------------|
A|------------2---3---5-------5--|------5-5-----5-5-----5-5------|
E|3---3---5----------------------|-------------------------------|

e|------- 7------ ------- 8------|------- 10----- ------- 10-----|
B|--------8---------------8------|--------10--------------10-----|
G|--------7---------------9------|--------11--------------11-----|
D|-------------------------------|-------------------------------|
A|-------------------------------|-------------------------------|
E|-------------------------------|-------------------------------|



G C D
e|3---3-- 3---3-- 0---0-- 0---0--|2---2-2 2---2-2 2---2-2 2---2--|
B|3---3---3---3---1---1---1---1--|3---3-3-3---3-3-3---3-3-3---3--|
G|0---0---0---0---0---0---0---0--|2---2-2-2---2-2-2---2-2-2---2--|
D|0---0---0---0---2---2---2---2--|0---0-0-0---0-0-0---0-0-0---0--|
A|2---2---2---2---3---3---3---3--|-------------------------------|
E|3---3---3---3------------------|-------------------------------|
Lucy in the sky with diamonds
e|------- ------- ------- -------|------- ------- ------- -------|
B|-------------------------------|-------------------------------|
G|-------------------------------|-------------------------------|
D|------------------------2------|-------------------------------|
A|------------2---3---5-------5--|------5-5-----5-5-----5-5---5--|
E|3---3---5----------------------|-------------------------------|

e|------- 7------ ------- 8------|------- 10----- ------- 10-----|
B|--------8---------------8------|--------10--------------10-----|
G|--------7---------------9------|--------11--------------11-----|
D|-------------------------------|-------------------------------|
A|-------------------------------|-------------------------------|
E|-------------------------------|-------------------------------|



G C D
e|3---3-- 3---3-- 0---0-- 0---0--|2---2-- 2---2-- 2---2-- 2---2--|
B|3---3---3---3---1---1---1---1--|3---3---3---3---3---3---3---3--|
G|0---0---0---0---0---0---0---0--|2---2---2---2---2---2---2---2--|
D|0---0---0---0---2---2---2---2--|0---0---0---0---0---0---0---0--|
A|2---2---2---2---3---3---3---3--|-------------------------------|
E|3---3---3---3------------------|-------------------------------|
Lucy in the sky with diamonds
e|------- ------- ------- -------|------- ------- ------- -------|
B|-------------------------------|-------------------------------|
G|-------------------------------|-------------------------------|
D|------------------------2------|-------------------------------|
A|------------2---3---5-------5--|------5-5-----5-5-----5-5------|
E|3---3---5----------------------|-------------------------------|

e|------- 7------ ------- 8------|------- 10----- ------- 10-----|
B|--------8---------------8------|--------10--------------10-----|
G|--------7---------------9------|--------11--------------11-----|
D|-------------------------------|-------------------------------|
A|-------------------------------|-------------------------------|
E|-------------------------------|-------------------------------|




e|2---2-- 2---2-- 2---2-- 2---2--|
B|3---3---3---3---3---3---3---3--|
G|2---2---2---2---2---2---2---2--|
D|0---0---0---0---0---0---0---0--|
A|-------------------------------|
E|-------------------------------|
Aaah
e|------- ------- ------- -------|
B|-------------------------------|
G|-------------------------------|
D|-------------------------------|
A|5------------------------------|
E|-------------------------------|

e|10----- ------- ------- -------|
B|10-----------------------------|
G|11-----------------------------|
D|-------------------------------|
A|-------------------------------|
E|-------------------------------|



e|------ ------ 12----|------ 12---- ------|------ ------ 12----|
B|-------10-----------|--------------10----|-------10-----------|
G|-9------------------|12------------------|11------------------|
D|--------------------|--------------------|--------------------|
A|--------------------|--------------------|--------------------|
E|--------------------|--------------------|--------------------|
Follow her down to a bridge by a


e|------ 10-9-- ------|------ ------ 12----|------ 12---- ------|
B|--------------10----|-------10-----------|--------------10----|
G|10------------------|-9------------------|12------------------|
D|--------------------|--------------------|--------------------|
A|--------------------|--------------------|--------------------|
E|--------------------|--------------------|--------------------|
fountain where rocking-horse people eat


e|------ ------ 12----|------ ------ ------|------ ------ ------|
B|-------10-----------|13-----10-----13----|10-----13-----10----|
G|11------------------|10------------------|10------------------|
D|--------------------|--------------------|--------------------|
A|--------------------|--------------------|--------------------|
E|--------------------|--------------------|--------------------|
marshmallow pies,


e|------ ------ 12----|------ 12---- ------|------ ------ 12----|
B|-------10-----------|--------------10----|-------10-----------|
G|-9------------------|12------------------|11------------------|
D|--------------------|--------------------|--------------------|
A|--------------------|--------------------|--------------------|
E|--------------------|--------------------|--------------------|
everyone smiles as you drift past the flowers


e|------ 10-9-- ------|------ ------ 12----|------ 12---- ------|
B|--------------10----|-------10-----------|--------------10----|
G|10------------------|-9------------------|12------------------|
D|--------------------|--------------------|--------------------|
A|--------------------|--------------------|--------------------|
E|--------------------|--------------------|--------------------|
that grow so incredibly


e|-9---- 12---- -9----|12---- -9---- 12----|13---- 10---- 10----|
B|10------------------|10------------------|10------------------|
G|--------------------|--------------------|--------------------|
D|--------------------|--------------------|--------------------|
A|--------------------|--------------------|--------------------|
E|--------------------|--------------------|--------------------|
high.


e|10---- ------ ------|1----- 1----- 1-----|1----- 1----- 1-----|
B|--------------------|3------3------3-----|3------3------3-----|
G|--------------------|3------3------3-----|3------3------3-----|
D|--------------------|3------3------3-----|3------3------3-----|
A|--------------------|1------1------1-----|1------1------1-----|
E|--------------------|--------------------|--------------------|
Newspaper taxis appear
e|------ ------ ------|------ ------ ------|------ ------ ------|
B|--------------------|--------------------|--------------------|
G|--------------------|5B7----7------7-----|7------7------7-----|
D|--------------------|--------------------|--------------------|
A|--------------------|--------------------|--------------------|
E|--------------------|--------------------|--------------------|



e|0----- 0----- 0-----|0----- 0----- 0-----|1----- 1----- 1-----|
B|1------1------1-----|1------1------1-----|1------1------1-----|
G|0------0------0-----|0------0------0-----|2------2------2-----|
D|2------2------2-----|2------2------2-----|3------3------3-----|
A|3------3------3-----|3------3------3-----|3------3------3-----|
E|--------------------|--------------------|1------1------1-----|
on the shore waiting to take
e|------ ------ ------|------ ------ ------|------ ------ ------|
B|--------------------|--------------------|--------------------|
G|5----B-7------7-----|7-------------------|5B7----7------7-----|
D|--------------------|--------------------|--------------------|
A|--------------------|--------------------|--------------------|
E|--------------------|--------------------|--------------------|



e|1----- 1----- 1-----|1----- 1----- 1-----|1----- 1----- 1-----|
B|1------1------1-----|3------3------3-----|3------3------3-----|
G|2------2------2-----|3------3------3-----|3------3------3-----|
D|3------3------3-----|3------3------3-----|3------3------3-----|
A|3------3------3-----|1------1------1-----|1------1------1-----|
E|1------1------1-----|--------------------|--------------------|
you away
e|------ ------ ------|------ ------ ------|------ ------ ------|
B|--------------------|--------------------|--------------------|
G|5B7----7------7-----|7-----R---5---3-----|--------------------|
D|--------------------|--------------------|--------------------|
A|--------------------|--------------------|--------------------|
E|--------------------|--------------------|--------------------|



e|0----- 0----- 0-----|0----- 0----- 0-----|3----- 3----- 3-----|
B|1------1------1-----|1------1------1-----|3------3------3-----|
G|0------0------0-----|0------0------0-----|0------0------0-----|
D|2------2------2-----|2------2------2-----|0------0------0-----|
A|3------3------3-----|3------3------3-----|2------2------2-----|
E|--------------------|--------------------|3------3------3-----|
Climb in the back with the sun in her eyes
e|------ ------ ------|------ ------ ------|------ ------ ------|
B|--------------------|--------------------|--------------------|
G|5B7----7------7-----|5B7----7------7-----|5B7----7------7-----|
D|--------------------|--------------------|--------------------|
A|--------------------|--------------------|--------------------|
E|--------------------|--------------------|--------------------|


D X X X
e|3----- 3----- 3-----|2------ ------- ------- -------|
B|3------3------3-----|3------------------------------|
G|0------0------0-----|2------------------------------|
D|0------0------0-----|0------------------------------|
A|2------2------2-----|0------------------------------|
E|3------3------3-----|-------------------------------|
and she's gone
e|------ ------ ------|------- ------- ------- -------|
B|--------------------|-------------------------------|
G|7---R--5------4-----|-------------------------------|
D|--------------------|7------------------------------|
A|--------------------|-------------------------------|
E|--------------------|-------------------------------|




e|3---3-- 3---3-- 0---0-- 0---0-0|2---2-2 2---2-- 2---2-- 2---2--|
B|3---3---3---3---1---1---1---1-1|3---3-3-3---3---3---3---3---3--|
G|0---0---0---0---0---0---0---0-0|2---2-2-2---2---2---2---2---2--|
D|0---0---0---0---2---2---2---2-2|0---0-0-0---0---0---0---0---0--|
A|2---2---2---2---3---3---3---3-3|-------------------------------|
E|3---3---3---3------------------|-------------------------------|
Lucy in the sky with diamonds
e|------- ------- ------- -------|------- ------- ------- -------|
B|-------------------------------|-------------------------------|
G|-------------------------------|-------------------------------|
D|------------------------2------|-------------------------------|
A|------------2---3---5-------5--|-------------------------------|
E|3---3---5----------------------|-------------------------------|

e|------- 7------ ------- 8------|------- 10----- ------- 10-----|
B|--------8---------------8------|--------10--------------10-----|
G|--------7---------------9------|--------11--------------11-----|
D|-------------------------------|-------------------------------|
A|-------------------------------|-------------------------------|
E|-------------------------------|-------------------------------|




e|3---3-- 3---3-- 0---0-- 0---0--|2---2-- 2-2-2-- 2---2-- 2-2-2--|
B|3---3---3---3---1---1---1---1--|3---3---3-3-3---3---3---3-3-3--|
G|0---0---0---0---0---0---0---0--|2---2---2-2-2---2---2---2-2-2--|
D|0---0---0---0---2---2---2---2--|0---0---0-0-0---0---0---0-0-0--|
A|2---2---2---2---3---3---3---3--|-------------------------------|
E|3---3---3---3------------------|-------------------------------|
Lucy in the sky with diamonds
e|------- ------- ------- -------|------- ------- ------- -------|
B|-------------------------------|-------------------------------|
G|-------------------------------|-------------------------------|
D|------------------------2------|-------------------------------|
A|------------2---3---5-------5--|----5-5-5---5-5-5---5-5-5------|
E|3---3---5----------------------|-------------------------------|

e|------- 7------ ------- 8------|------- 10----- ------- 10-----|
B|--------8---------------8------|--------10--------------10-----|
G|--------7---------------9------|--------11--------------11-----|
D|-------------------------------|-------------------------------|
A|-------------------------------|-------------------------------|
E|-------------------------------|-------------------------------|




e|3---3-- 3---3-- 0---0-- 0---0-0|2---2-- 2---2-- 2---2-- 2---2--|
B|3---3---3---3---1---1---1---1-1|3---3---3---3---3---3---3---3--|
G|0---0---0---0---0---0---0---0-0|2---2---2---2---2---2---2---2--|
D|0---0---0---0---2---2---2---2-2|0---0---0---0---0---0---0---0--|
A|2---2---2---2---3---3---3---3-3|-------------------------------|
E|3---3---3---3------------------|-------------------------------|
Lucy in the sky with diamonds
e|------- ------- ------- -------|------- ------- ------- -------|
B|-------------------------------|-------------------------------|
G|-------------------------------|-------------------------------|
D|------------------------2------|-------------------------------|
A|------------2---3---5-------5--|----5-5-5---5-5-5---5-5-5---5--|
E|3---3---5----------------------|-------------------------------|

e|------- 7------ ------- 8------|------- 10----- ------- 10-----|
B|--------8---------------8------|--------10--------------10-----|
G|--------7---------------9------|--------11--------------11-----|
D|-------------------------------|-------------------------------|
A|-------------------------------|-------------------------------|
E|-------------------------------|-------------------------------|




e|2---2-- 2---2-- 2---2-- 2---2--|
B|3---3---3---3---3---3---3---3--|
G|2---2---2---2---2---2---2---2--|
D|0---0---0---0---0---0---0---0--|
A|-------------------------------|
E|-------------------------------|
Aaah
e|------- ------- ------- -------|
B|-------------------------------|
G|-------------------------------|
D|-------------------------------|
A|5------------------------------|
E|-------------------------------|

e|10----- ------- ------- -------|
B|10-----------------------------|
G|11-----------------------------|
D|-------------------------------|
A|-------------------------------|
E|-------------------------------|





e|------ ------ 12----|------ 12---- ------|------ ------ 12----|
B|-------10-----------|--------------10----|-------10-----------|
G|-9------------------|12------------------|11------------------|
D|--------------------|--------------------|--------------------|
A|--------------------|--------------------|--------------------|
E|--------------------|--------------------|--------------------|
Pic....ture your...self on a train in a station


e|------ 10-9-- ------|------ ------ 12----|------ 12---- ------|
B|--------------10----|-------10-----------|--------------10----|
G|10------------------|-9------------------|12------------------|
D|--------------------|--------------------|--------------------|
A|--------------------|--------------------|--------------------|
E|--------------------|--------------------|--------------------|
with plasticine porters with


e|------ ------ 12----|------ ------ ------|------ ------ ------|
B|-------10-----------|13-----10-----13----|10------------------|
G|11------------------|10------------------|--------------------|
D|--------------------|--------------------|--------------------|
A|--------------------|--------------------|--------------------|
E|--------------------|--------------------|--------------------|
looking glass ties


e|------ ------ 12----|------ 12---- ------|------ ------ 12----|
B|-------10-----------|--------------10----|-------10-----------|
G|-9------------------|12------------------|11------------------|
D|--------------------|--------------------|--------------------|
A|--------------------|--------------------|--------------------|
E|--------------------|--------------------|--------------------|
suddenly someone is there at the turn..


e|------ 10-9-- ------|------ ------ 12----|------ 12---- ------|
B|-----------------10-|-------10-----------|--------------10----|
G|10------------------|-9------------------|12------------------|
D|--------------------|--------------------|--------------------|
A|--------------------|--------------------|--------------------|
E|--------------------|--------------------|--------------------|
.......stile, the girl with kaleidoscope

X X X
e|------ 9----- 12----|9----- 12---- 9-----|10----- ------- ------- -------|
B|--------------------|--------------------|-------------------------------|
G|--------------------|--------------------|-------------------------------|
D|--------------------|--------------------|-------------------------------|
A|--------------------|--------------------|-------------------------------|
E|--------------------|--------------------|-------------------------------|
eyes


e|3---3-- 3---3-- 0---0-- 0---0--|2---2-- 2-2-2-- 2---2-2 2---2--|
B|3---3---3---3---1---1---1---1--|3---3---3-3-3---3---3-3-3---3--|
G|0---0---0---0---0---0---0---0--|2---2---2-2-2---2---2-2-2---2--|
D|0---0---0---0---2---2---2---2--|0---0---0-0-0---0---0-0-0---0--|
A|2---2---2---2---3---3---3---3--|-------------------------------|
E|3---3---3---3------------------|-------------------------------|
Lucy in the sky with diamonds
e|------- ------- ------- -------|------- ------- ------- -------|
B|-------------------------------|-------------------------------|
G|-------------------------------|-------------------------------|
D|------------------------2------|-------------------------------|
A|------------2---3---5-------5--|------5-5-----5-5-----5-5-----5|
E|3---3---5----------------------|-------------------------------|

e|7------ ------- -8----- -------|10----- ------- 1010--1010-----|
B|8----------------8-------------|10--------------1010--1010-----|
G|7----------------9-------------|11--------------1111--1111-----|
D|-------------------------------|-------------------------------|
A|-------------------------------|-------------------------------|
E|-------------------------------|-------------------------------|




e|3---3-- 3---3-- 0---0-- 0---0-0|2---2-- 2---2-- 2-2-2-- 2---2--|
B|3---3---3---3---1---1---1---1-1|3---3---3---3---3-3-3---3---3--|
G|0---0---0---0---0---0---0---0-0|2---2---2---2---2-2-2---2---2--|
D|0---0---0---0---2---2---2---2-2|0---0---0---0---0-0-0---0---0--|
A|2---2---2---2---3---3---3---3-3|-------------------------------|
E|3---3---3---3------------------|-------------------------------|
Lucy in the sky with diamonds
e|------- ------- ------- -------|------- ------- ------- -------|
B|-------------------------------|-------------------------------|
G|-------------------------------|-------------------------------|
D|------------------------2------|-------------------------------|
A|------------2---3---5-------5--|------5-5-----5-5-----5-5------|
E|3---3---5----------------------|-------------------------------|

e|7------ ------- -8----- -------|10----- ------- 1010--1010-----|
B|8----------------8-------------|10--------------1010--1010-----|
G|7----------------9-------------|11--------------1111--1111-----|
D|-------------------------------|-------------------------------|
A|-------------------------------|-------------------------------|
E|-------------------------------|-------------------------------|




e|3---3-- 3---3-- 0---0-- 0---0--|2---2-- 2---2-2 2---2-- 2-2-2--|
B|3---3---3---3---1---1---1---1--|3---3---3---3-3-3---3---3-3-3--|
G|0---0---0---0---0---0---0---0--|2---2---2---2-2-2---2---2-2-2--|
D|0---0---0---0---2---2---2---2--|0---0---0---0-0-0---0---0-0-0--|
A|2---2---2---2---3---3---3---3--|-------------------------------|
E|3---3---3---3------------------|-------------------------------|
Lucy in the sky with diamonds
e|------- ------- ------- -------|------- ------- ------- -------|
B|-------------------------------|-------------------------------|
G|-------------------------------|-------------------------------|
D|------------------------2------|-------------------------------|
A|------------2---3---5-------5--|------5-5-----5-5-------5-5-5--|
E|3---3---5----------------------|-------------------------------|

e|7------ ------- -8----- -------|10----- ------- 1010--1010--10-|
B|8----------------8-------------|10--------------1010--1010--10-|
G|7----------------9-------------|11--------------1111--1111--11-|
D|-------------------------------|-------------------------------|
A|-------------------------------|-------------------------------|
E|-------------------------------|-------------------------------|




e|2---2-- 2---2-- 2---2-- 2---2--|0---0-- 0---0-- 0---0-- 0---0--|
B|3---3---3---3---3---3---3---3--|2---2---2---2---2---2---2---2--|
G|2---2---2---2---2---2---2---2--|2---2---2---2---2---2---2---2--|
D|0---0---0---0---0---0---0---0--|2---2---2---2---2---2---2---2--|
A|-------------------------------|0---0---0---0---0---0---0---0--|
E|-------------------------------|-------------------------------|
Aaah
e|------- ------- ------- -------|------- ------- ------- -------|
B|-------------------------------|-------------------------------|
G|-------------------------------|-------------------------------|
D|-------------------------------|-------------------------------|
A|5------------------------------|-------------------------------|
E|-------------------------------|5---------------5-----5---5-5--|

e|10----- ------- ------- -------|-9----- ------- ------- -------|
B|10-----------------------------|10-----------------------------|
G|11-----------------------------|-9-----------------------------|
D|-------------------------------|-------------------------------|
A|-------------------------------|-------------------------------|
E|-------------------------------|-------------------------------|



e|3---3-- 3---3-- 0---0-- 0---0-0|2---2-- 2---2-- 2-2-2-- 2---2--|
B|3---3---3---3---1---1---1---1-1|3---3---3---3---3-3-3---3---3--|
G|0---0---0---0---0---0---0---0-0|2---2---2---2---2-2-2---2---2--|
D|0---0---0---0---2---2---2---2-2|0---0---0---0---0-0-0---0---0--|
A|2---2---2---2---3---3---3---3-3|-------------------------------|
E|3---3---3---3------------------|-------------------------------|
Lucy in the sky with diamonds
e|------- ------- ------- -------|------- ------- ------- -------|
B|-------------------------------|-------------------------------|
G|-------------------------------|-------------------------------|
D|------------------------2------|-------------------------------|
A|------------2---3---5-------5--|------5-5-----5-5-----5-5------|
E|3---3---5----------------------|-------------------------------|

e|7------ ------- -8----- -------|10----- ------- 1010--1010-----|
B|8----------------8-------------|10--------------1010--1010-----|
G|7----------------9-------------|11--------------1111--1111-----|
D|-------------------------------|-------------------------------|
A|-------------------------------|-------------------------------|
E|-------------------------------|-------------------------------|




e|3---3-- 3---3-- 0---0-- 0---0-0|2---2-- 2---2-- 2-2-2-- 2---2--|
B|3---3---3---3---1---1---1---1-1|3---3---3---3---3-3-3---3---3--|
G|0---0---0---0---0---0---0---0-0|2---2---2---2---2-2-2---2---2--|
D|0---0---0---0---2---2---2---2-2|0---0---0---0---0-0-0---0---0--|
A|2---2---2---2---3---3---3---3-3|-------------------------------|
E|3---3---3---3------------------|-------------------------------|
Lucy in the sky with diamonds
e|------- ------- ------- -------|------- ------- ------- -------|
B|-------------------------------|-------------------------------|
G|-------------------------------|-------------------------------|
D|------------------------2------|-------------------------------|
A|------------2---3---5-------5--|------5-5-----5-5-----5-5------|
E|3---3---5----------------------|-------------------------------|

e|7------ ------- -8----- -------|10----- ------- 1010--1010-----|
B|8----------------8-------------|10--------------1010--1010-----|
G|7----------------9-------------|11--------------1111--1111-----|
D|-------------------------------|-------------------------------|
A|-------------------------------|-------------------------------|
E|-------------------------------|-------------------------------|




e|3---3-- 3---3-- 0---0-- 0---0-0|2---2-- 2---2-- 2-2-2-- 2---2--|
B|3---3---3---3---1---1---1---1-1|3---3---3---3---3-3-3---3---3--|
G|0---0---0---0---0---0---0---0-0|2---2---2---2---2-2-2---2---2--|
D|0---0---0---0---2---2---2---2-2|0---0---0---0---0-0-0---0---0--|
A|2---2---2---2---3---3---3---3-3|-------------------------------|
E|3---3---3---3------------------|-------------------------------|
Lucy in the sky with diamonds
e|------- ------- ------- -------|------- ------- ------- -------|
B|-------------------------------|-------------------------------|
G|-------------------------------|-------------------------------|
D|------------------------2------|-------------------------------|
A|------------2---3---5-------5--|------5-5-----5-5-----5-5------|
E|3---3---5----------------------|-------------------------------|

e|7------ ------- -8----- -------|10----- ------- 1010101010101010
B|8----------------8-------------|10--------------1010101010101010
G|7----------------9-------------|11--------------1111111111111111
D|-------------------------------|-------------------------------|
A|-------------------------------|-------------------------------|
E|-------------------------------|-------------------------------|




e|2---2-- 2---2-- 2---2-- 2---2--|0---0-- 0---0-- 0---0-- 0---0--|
B|3---3---3---3---3---3---3---3--|2---2---2---2---2---2---2---2--|
G|2---2---2---2---2---2---2---2--|2---2---2---2---2---2---2---2--|
D|0---0---0---0---0---0---0---0--|2---2---2---2---2---2---2---2--|
A|-------------------------------|0---0---0---0---0---0---0---0--|
E|-------------------------------|-------------------------------|
Aaah
e|------- ------- ------- -------|------- ------- ------- -------|
B|-------------------------------|-------------------------------|
G|-------------------------------|-------------------------------|
D|-------------------------------|-------------------------------|
A|5------------------------------|-------------------------------|
E|-------------------------------|----------------5-------5-5-5--|

e|10----- ------- ------- -------|-9----- ------- ------- -------|
B|10-----------------------------|10-----------------------------|
G|11-----------------------------|-9-----------------------------|
D|-------------------------------|-------------------------------|
A|-------------------------------|-------------------------------|
E|-------------------------------|-------------------------------|




e|3---3-- 3---3-- 0---0-- 0---0--|2---2-- 2---2-- 2---2-- 2---2--|
B|3---3---3---3---1---1---1---1--|3---3---3---3---3---3---3---3--|
G|0---0---0---0---0---0---0---0--|2---2---2---2---2---2---2---2--|
D|0---0---0---0---2---2---2---2--|0---0---0---0---0---0---0---0--|
A|2---2---2---2---3---3---3---3--|-------------------------------|
E|3---3---3---3------------------|-------------------------------|
Lucy in the sky with diamonds
e|------- ------- ------- -------|------- ------- ------- -------|
B|-------------------------------|--------6-----------6----------|
G|-------------------------------|----7-----------7-----------7--|
D|------------------------2------|-------------------------------|
A|------------2---3---5-------5--|-------------------------------|
E|3---3---5----------------------|-------------------------------|

e|7------ ------- 8------ -------|10----- ------- ------1010-----|
B|8---------------8--------------|10--------------------1010-----|
G|7---------------9--------------|11--------------------1111-----|
D|-------------------------------|-------------------------------|
A|-------------------------------|-------------------------------|
E|-------------------------------|-------------------------------|
.............................Fade..............................


e|3---3-- 3---3-- 0---0-- 0---2--|------- 2---2-- 2---2-- 2---2--|
B|3---3---3---3---1---1---1---3--|--------3---3---3---3---3---3--|
G|0---0---0---0---0---0---0---2--|--------2---2---2---2---2---2--|
D|0---0---0---0---2---2---2---0--|--------0---0---0---0---0---0--|
A|2---2---2---2---3---3---3------|-------------------------------|
E|3---3---3---3------------------|-------------------------------|
Lucy in the sky with diamonds
e|------- ------- ------- -------|------- ------- ------- -------|
B|6------------------------------|-------------------------------|
G|--------7----------------------|-------------------------------|
D|-------------------------------|-------------------------------|
A|-------------------------------|------------------5---4-5---5--|
E|-------------------------------|-------------------------------|

e|7------ ------- 8------ -------|1010--1010----- ----1010-------|
B|8---------------8--------------|1010--1010----------1010-------|
G|7---------------9--------------|1111--1111----------1111-------|
D|-------------------------------|-------------------------------|
A|-------------------------------|-------------------------------|
E|-------------------------------|-------------------------------|
...............................................................



e|3---3-- 3---3-- 0---0-- 0---2-2|2---2-- 2---2-2 2---2-- 2---2--|
B|3---3---3---3---1---1---1---3-3|3---3---3---3-3-3---3---3---3--|
G|0---0---0---0---0---0---0---2-2|2---2---2---2-2-2---2---2---2--|
D|0---0---0---0---2---2---2---0-0|0---0---0---0-0-0---0---0---0--|
A|2---2---2---2---3---3---3------|-------------------------------|
E|3---3---3---3------------------|-------------------------------|
Lucy in the sky with diamonds
e|------- ------- ------- -------|------- ------- ------- -------|
B|-------------------------------|-------------------------------|
G|-------------------------------|-------------------------------|
D|------------------------2------|-------------------------------|
A|------------2---3---5-------5--|------5-5-----5-5-----5-5------|
E|3---3---5----------------------|-------------------------------|
...............................................................









B Bend
R Release
/ slide up
\ slide down
H hammer-on
P pull-off
~ vibrato
+ harmonic
x Mute note
. - play note like a dot in standard notation
^ - ties two notes together
(. Pause

pjvill

Submitted by pjvill at Wed 14 Dec, 2005 5:13 pm

Author: ?
Composer: ?
Publisher: ?
Language: English

Reactions

CommonCrawl [Bot]

Follow Muzikum