The Beatles

The Beatles
Let It Be Ver 7 (Guitar tab)

----------------------------------------------------------------------

THE BEATLES - LET IT BE (Lennon/McCartney) Released as a single with
YOU KNOW MY NAME(LOOK UP THE NUMBER) as the B side on
6th March 1970.


----------------------------------------------------------------------

Tabbed by:PJVillanueva





When I find myself in times of trouble
Mother Mary comes to me
Speaking words of wisdom, let it be.
And in my hour of darkness
She is standing right in front of me
Speaking words of wisdom, let it be.
Let it be, let it be.
Let it be, let it be.
Whisper words of wisdom, let it be.

And when the broken hearted people
Living in the world agree,
There will be an answer, let it be.
For though they may be parted there is
Still a chance that they will see
There will be an answer, let it be.

Let it be, let it be.
Let, let it, let it be.
Yeah, there will be an answer, let it be.

Let it be, let it be.
Let it be, let it be.
Whisper words of wisdom, let it be.
(instrumental break)

Let it be, let it be.
Let it be, let it be.
Whisper words of wisdom, let it be.

And when the night is cloudy,
There is still a light that shines on me.
Shine on 'til tomorrow, let it be.
I wake up to the sound of music
Mother Mary comes to me
Speaking words of wisdom, let it be.

Let it be, let it be.
Let it be, yeah let it be.
Oh there will be an answer, let it be.

Let it be, let it be.
Let it be, yeah let it be.
Oh there will be an answer, let it be.

Let it be, let it be.
Let it be, yeah let it be.
Whisper words of wisdom, let it be.





C G
e|0------ ------- 0------ -------|3------ ------- 3------ -------|
B|1---------------1--------------|3---------------3--------------|
G|0---------------0--------------|0---------------0--------------|
D|-------------------------------|-------------------------------|
A|3-------3----------------------|-------------------------------|
E|------------------------------2/3-------3----------------------|




Am Fmaj7 F6
e|0------ ------- 0------ 0------|0------ ------- ------- -------|
B|1---------------1-------1------|1---------------3--------------|
G|2---------------2-------2------|2---------------2--------------|
D|-------------------------------|----------------3--------------|
A|0-------0----------------------|-------------------------------|
E|------------------------3------|1-------1---------------1------|




C G
e|0------ ------- 0------ -------|3------ ------- 3------ -------|
B|1---------------1--------------|3---------------3--------------|
G|0---------------0--------------|0---------------0--------------|
D|-------------------------------|-------------------------------|
A|3-------3-------------------3--|-------------------------------|
E|------------------------------2/3-------3---------------3------|




F C
e|5------ ------- 3------ 1------|0------ ------- ------- -------|
B|6---------------5-------3------|1------------------------------|
G|-------------------------------|-------------------------------|
D|3-------3----------------------|-------------------------------|
A|-------------------------------|3-------3-------3-------3------|
E|-------------------------------|-------------------------------|
When I



G
e|0------ ------- 0------ -------|3------ ------- 3------ -------|
B|1---------------1--------------|3---------------3--------------|
G|0---------------0--------------|0---------------0--------------|
D|-------------------------------|-------------------------------|
A|3-------3---------------3------|-------------------------------|
E|------------------------------2/3-------3---------------3------|
find myself in times of trouble



Am Fmaj7 F6
e|0------ ------- 0------ 0------|0------ ------- ------- -------|
B|1---------------1-------1------|1---------------3--------------|
G|2---------------2-------2------|2---------------2--------------|
D|-------------------------------|----------------3--------------|
A|0-------0----------------------|-------------------------------|
E|------------------------3------|1-------1---------------1------|
Mother Mary comes to me



C G
e|0------ ------- 0------ -------|3------ ------- 3------ -------|
B|1---------------1--------------|3---------------3--------------|
G|0---------------0--------------|0---------------0--------------|
D|-------------------------------|-------------------------------|
A|3-------3---------------3------|-------------------------------|
E|------------------------------2/3-------3---------------3------| speaking words of wisdom Let it be



F C
e|------- ------- ------- -------|0------ ------- 0------ -------|
B|-------------------------------|1---------------1--------------|
G|2---------------0--------------|0---------------0--------------|
D|3---------------2-------3------|2------------------------------|
A|------------------------5------|3-------3-------------------3--|
E|1-------1----------------------|-------------------------------|
And


G
e|0------ ------- 0------ -------|3------ ------- 3------ -------|
B|1---------------1--------------|3---------------3--------------|
G|0---------------0--------------|0---------------0--------------|
D|-------------------------------|-------------------------------|
A|3-------3----------------------|-------------------------------|
E|------------------------------2/3------------------------3-----|
in my hour of darkness she is



Am Fmaj7 F6
e|0------ ------- 0------ 0------|0------ ------- ------- -------|
B|1---------------1-------1------|1---------------3--------------|
G|2---------------2-------2------|2---------------2--------------|
D|-------------------------------|----------------3--------------|
A|0------------------------------|-------------------------------|
E|------------------------3------|1-----------------------1------|
standing right in front of me



C G
e|0------ ------- 0------ -------|3------ ------- 3------ -------|
B|1---------------1--------------|3---------------3--------------|
G|0---------------0--------------|0---------------0--------------|
D|-------------------------------|-------------------------------|
A|3-------3----------------------|-------------------------------|
E|------------------------------2/3-------3---------------3------|
speaking words of wisdom Let it be



F C Em
e|------- ------- ------- -------|0------ ------- 0------ -------|
B|-------------------------------|1---------------0--------------|
G|2---------------0--------------|0---------------0--------------|
D|3---------------2-------3------|-------------------------------|
A|------------------------5------|3-------3-------2-------2------|
E|1-------1----------------------|-------------------------------|
let it be



Am Am7
e|0------ ------- 0------ -------|0------ ------- 0------ -------|
B|1---------------1--------------|1---------------1--------------|
G|2---------------2--------------|2---------------2--------------|
D|-------------------------------|-------------------------------|
A|0-----------------------0------|-------------------------------|
E|-------------------------------|3-------3-------3-------3------|
let it be let it be



Fmaj7 C
e|0------ ------- 0------ -------|0------ ------- 0------ -------|
B|1---------------1--------------|1---------------1--------------|
G|2---------------2--------------|0---------------0--------------|
D|-------------------------------|-------------------------------|
A|-------------------------------|3-------3---------------3------|
E|1---------------1--------------|-------------------------------|
let it be



G
e|0------ ------- 0------ -------|3------ ------- 3------ -------|
B|1---------------1--------------|3---------------3--------------|
G|0---------------0--------------|0---------------0--------------|
D|-------------------------------|-------------------------------|
A|3-------3---------------3------|-------------------------------|
E|------------------------------2/3-------3---------------3------|
Whisper words of wisdom, let it be.



F C
e|------- ------- ------- -------|0------ 0------ 0------ 0------|
B|-------------------------------|1-------1-------1-------1------|
G|2---------------0--------------|0-------0-------0-------0------|
D|3---------------2-------3------|-------------------------------|
A|------------------------5------|3-------3-------3-------3------|
E|1-------1----------------------|-------------------------------|
And



G
e|0------ ------- 0------ -------|3------ ------- 3------ -------|
B|1---------------1--------------|3---------------3--------------|
G|0---------------0--------------|0---------------0--------------|
D|-------------------------------|-------------------------------|
A|3-------3---------------3------|-------------------------------|
E|------------------------------2/3-------3---------------3------|
when the broken hearted people



Am Fmaj7 F6
e|0------ ------- 0------ 0------|0------ ------- ------- -------|
B|1---------------1-------1------|1---------------3--------------|
G|2---------------2-------2------|2---------------2--------------|
D|-------------------------------|----------------3--------------|
A|0-------0----------------------|-------------------------------|
E|------------------------3------|1-------1---------------1------|
living in the world agree



C G
e|0------ ------- 0------ -------|3------ ------- 3------ -------|
B|1---------------1--------------|3---------------3--------------|
G|0---------------0--------------|0---------------0--------------|
D|-------------------------------|-------------------------------|
A|3-------3---------------3------|-------------------------------|
E|------------------------------2/3-------3---------------3------|
There will be an answer, let it be.



F C
e|------- ------- ------- -------|0------ ------- 0------ -------|
B|-------------------------------|1---------------1--------------|
G|2---------------0--------------|0---------------0--------------|
D|3---------------2-------3------|-------------------------------|
A|------------------------5------|3---------------3--------------|
E|1-------1----------------------|-------------------------------|
For



G
e|0------ ------- 0------ -------|3------ ------- 3------ -------|
B|1---------------1--------------|3---------------3--------------|
G|0---------------0--------------|0---------------0--------------|
D|-------------------------------|-------------------------------|
A|3-------3---------------3------|-------------------------------|
E|-------------------------------|3---------------3--------------|
though they may be parted there is



Am Fmaj7 F6
e|0------ ------- 0------ 0------|0------ ------- ------- -------|
B|1---------------1-------1------|1---------------3--------------|
G|2---------------2-------2------|2---------------2--------------|
D|-------------------------------|----------------3--------------|
A|0---------------0--------------|-------------------------------|
E|------------------------3------|1---------------1--------------|
Still a chance that they will see



C G
e|0------ ------- 0------ -------|3------ ------- 3------ -------|
B|1---------------1--------------|3---------------3--------------|
G|0---------------0--------------|0---------------0--------------|
D|-------------------------------|-------------------------------|
A|3-------3----------------------|-------------------------------|
E|------------------------------2/3-----------------------3------|
There will be an answer, let it be.



F C Em
e|------- ------- ------- -------|0------ ------- 0------ -------|
B|-------------------------------|1---------------0--------------|
G|2---------------0--------------|0---------------0--------------|
D|3---------------2-------3------|-------------------------------|
A|------------------------5------|3-------3-------2-------2------|
E|1------------------------------|-------------------------------|
let it be



Am Am7
e|0------ ------- 0------ -------|0------ ------- 0------ -------|
B|1---------------1--------------|1---------------1--------------|
G|2---------------2--------------|2---------------2--------------|
D|-------------------------------|-------------------------------|
A|0-------0---------------0------|-------------------------------|
E|-------------------------------|3-------3---------------3------|
let it be let it be



F C
e|0------ ------- 0------ -------|0------ ------- 0------ -------|
B|1---------------1--------------|1---------------1--------------|
G|2---------------2--------------|0---------------0--------------|
D|-------------------------------|-------------------------------|
A|-------------------------------|3-------3---------------3------|
E|1-------1---------------1------|-------------------------------|
let it be



G
e|0------ ------- 0------ -------|3------ ------- 3------ -------|
B|1---------------1--------------|3---------------3--------------|
G|0---------------0--------------|0---------------0--------------|
D|-------------------------------|-------------------------------|
A|3-------3---------------3------|-------------------------------|
E|-------------------------------|3-------3---------------3------|
Whisper words of wisdom, let it be.



F C
e|------- ------- ------- -------|0------ 0---0-- ----0-- 0------|
B|-------------------------------|1-------1---1-------1---1------|
G|2---------------0--------------|0-------0---0-------0---0------|
D|3---------------2-------3------|-------------------------------|
A|------------------------5------|3-------3-------3-------3------|
E|1------------------------------|-------------------------------|




F C Bb F
e|5------ ------- ------- -------|------- ------- ------- -------|
B|6---------------8-------6------|5---------------3-------1------|
G|5---------------5-------5------|5---------------3-------2------|
D|-------------------------------|5---------------3-------3------|
A|-------------------------------|-------------------------------|
E|-------------------------------|-------------------------------|




G F C
e|------- ------- ------- -------|------- ------- ------- -------|
B|0---------------1--------------|1------------------------------|
G|0---------------2--------------|0------------------------------|
D|0---------------3--------------|2------------------------------|
A|-------------------------------|3---------------3--------------|
E|3---------------1--------------|-------------------------------|




F C G C Bb F
e|5------ ------- 3------ 3------|------- ------- ------- -------|
B|6---------------5-------6------|5---------------3-------1------|
G|5---------------5-------4------|5---------------3-------2------|
D|--------------------5----------|5-------------------3-------0--|
A|-------------------------------|-------------------------------|
E|-------------------------------|-------------------------------|




G F C
e|------- ------- ------- -------|------- 3---3-- 3---3-- -------|
B|0---------------1--------------|1-------5---5-\-3---1----------|
G|0---------------2--------------|0-----------------------2------|
D|0---------------3--------------|2------------------------------|
A|-------------------------------|3------------------------------|
E|3---------------1--------------|0------------------------------|

e|------- ------- ------- -------|------- ------- ------- -------|
B|-------------------------------|-------------------------------|
G|-------------------------------|-------------------------------|
D|-------------------------------|-------------------------------|
A|-------------------------------|-------------------------------|
E|-------------------------------|------------------------3-H-5--|




Solo

C G
e|0------ 0------ 0------ 0------|3------ 3------ 3------ 3------|
B|1-------1-------1-------1------|3-------3-------3-------3------|
G|0-------0-------0-------0------|0-------0-------0-------0------|
D|-------------------------------|-------------------------------|
A|3---------------3--------------|-------------------------------|
E|-------------------------------|3---------------3--------------|

e|------- ------- ------- -------|------- ------- ------- -------|
B|-------------------------------|-------------------------------|
G|-------------------------------|-------------------------------|
D|-------------------------------|-------------------------------|
A|3-------3-------5B7R5---3------|5-------5---------------3-H-5-/|
E|-------------------------------|----------------3-H-5----------|




Am Am7 Fmaj7 F6
e|0------ 0------ 0------ 0------|0------ 0------ ------- -------|
B|1-------1-------1-------1------|1-------1-------3-------3------|
G|2-------2-------2-------2------|2-------2-------2-------2------|
D|-------------------------------|----------------3-------3------|
A|0---------------0--------------|-------------------------------|
E|------------------------3------|1---------------1--------------|

e|------- ------- ------- -------|------- ------- ------- -------|
B|-------------------------------|-------------------------------|
G|-------------------------------|-------------------------------|
D|--------5-------7--------------|-------------------------------|
A|7-----------------------7-\-5--|3-----------------------------5/
E|-------------------------------|-------------------------------|




C G
e|0------ 0------ 0------ 0------|3------ 3------ 3------ 3------|
B|1-------1-------1-------1------|3-------3-------3-------3------|
G|0-------0-------0-------0------|0-------0-------0-------0------|
D|-------------------------------|-------------------------------|
A|3---------------3--------------|-------------------------------|
E|-------------------------------|3---------------3--------------|

e|------- ------- ------- -------|------- ------- ------- -------|
B|-------------------------------|----8--10-P-8------------------|
G|----------------------------5-7/9---------------9-\-7---5------|
D|----5---5---x---5-------7------|-------------------------------|
A|7------------------------------|-------------------------------|
E|-------------------------------|-------------------------------|




F C G C
e|------- ------- ------- -------|------- 0---0-- ----0-- 0------|
B|1-------1-------1-------0------|1-------1---1-------1---1------|
G|2-------2-------0-------0------|0-------0---0-------0---0------|
D|3-------3-------2-------0------|2------------------------------|
A|-------------------------------|3-------3-------3-------3------|
E|-------------------------------|-------------------------------|

e|------- ------- ------- -------|------- ------- ------- -------|
B|-------------------------------|-------------------------------|
G|7-P-5--------------------------|-------------------------------|
D|--------7---5------------------|-------------------------------|
A|--------------------7-\-5------|3-----------------------------5/
E|-------------------------------|------------------------3-H-5--|




G
e|0------ 0------ 0------ 0------|3------ 3------ 3------ 3------|
B|1-------1-------1-------1------|3-------3-------3-------3------|
G|0-------0-------0-------0------|0-------0-------0-------0------|
D|-------------------------------|-------------------------------|
A|3---------------3--------------|-------------------------------|
E|-------------------------------|3---------------3--------------|

e|------- ------- ------- -------|------- ------- ------- -------|
B|-------------------------------|-------------------------------|
G|----------------------------7/9|----7---5-H-7-----------------7/
D|--------------5/7-------5------|----------------7-------5-H-7--|
A|7-------3----------------------|-------------------------------|
E|-------------------------------|-------------------------------|




Am Am7 Fmaj7 F6
e|0------ 0---0-- ------- 0------|0------ ------- ------- -------|
B|1-------1---1-----------1------|1---------------3--------------|
G|2-------2---2-----------2------|2---------------2--------------|
D|-------------------------------|----------------3--------------|
A|0---------------0--------------|-------------------------------|
E|------------------------3------|1---------------1--------------|

e|------- ------- ------- -------|------- ------- ------- -------|
B|--------8------10-P-8----------|-------------------------------|
G|9-----------------------9-\-7--|5---------------------------5-7/
D|-------------------------------|--------------------5-H-7------|
A|-------------------------------|-------------------------------|
E|-------------------------------|-------------------------------|




C G
e|0------ ------- 0------ -------|3------ ------- 3------ -------|
B|1---------------1--------------|3---------------3--------------|
G|0---------------0--------------|0---------------0--------------|
D|-------------------------------|-------------------------------|
A|3---------------3--------------|-------------------------------|
E|-------------------------------|3---------------3--------------|

e|------- 8------ ------- -----10B12----- 10----- 8------ ----8--|
B|---------------10-P-8----------|-----------------------10---8--|
G|9-----------------------9------|-------------------------------|
D|-------------------------------|-------------------------------|
A|-------------------------------|-------------------------------|
E|-------------------------------|-------------------------------|





F C G C Em
e|------- ------- ------- -------|------- ------- ------- -------|
B|1-------1-------1-------0------|1---------------0--------------|
G|2-------2-------0-------0------|0---------------0--------------|
D|3-------3-------2-------0------|2---------------2--------------|
A|-------------------------------|3---------------2--------------|
E|-------------------------------|-------------------------------|

e|------- ------- ------- -------|------- ------- ------- -------|
B|-------10-\-8------------------|-------------------------------|
G|----9-----------9-\-7---5------|5------------------------------|
D|-------------------------------|-------------------------------|
A|-------------------------------|-------------------------------|
E|-------------------------------|-------------------------------|
Let it be



Am A7sus2
e|0------ ------- 0------ -------|0------ ------- 0------ -------|
B|1---------------1--------------|0---------------0--------------|
G|2---------------2--------------|2---------------2--------------|
D|-------------------------------|-------------------------------|
A|0---------------0--------------|-------------------------------|
E|-------------------------------|3---------------3--------------|
let it be let it be



Fmaj7 C
e|0------ ------- 0------ -------|0------ ------- 0------ -------|
B|1---------------1--------------|1---------------1--------------|
G|2---------------2--------------|0---------------0--------------|
D|-------------------------------|-------------------------------|
A|-------------------------------|3---------------3--------------|
E|1---------------1--------------|-------------------------------|
let it be



G
e|0------ ------- 0------ -------|3------ ------- 3------ -------|
B|1---------------1--------------|3---------------3--------------|
G|0---------------0--------------|0---------------0--------------|
D|-------------------------------|-------------------------------|
A|3---------------3--------------|-------------------------------|
E|-------------------------------|3---------------3--------------|
Whisper words of wisdom, let it be.



F C
e|------- ------- ------- -------|0------ ------- ------- -------|
B|-------------------------------|1------------------------------|
G|2---------------0--------------|0------------------------------|
D|3---------------2-------3------|-------------------------------|
A|------------------------5------|3------------------------------|
E|1------------------------------|-------------------------------|
And


G
e|0------ ------- 0------ -------|3------ ------- 3------ -------|
B|1---------------1--------------|3---------------3--------------|
G|0---------------0--------------|0---------------0--------------|
D|-------------------------------|-------------------------------|
A|3---------------3--------------|-------------------------------|
E|-------------------------------|3---------------3--------------|
when the night is cloudy there is



Am Am7 Fmaj7 F6
e|0------ ------- 0------ 0------|0------ ------- ------- -------|
B|1---------------1-------1------|1---------------3--------------|
G|2---------------2-------2------|2---------------2--------------|
D|-------------------------------|----------------3--------------|
A|0---------------0--------------|------------------------3------|
E|------------------------3------|1---------------1--------------|
still a light that shines on me



C G
e|0------ ------- 0------ -------|3------ ------- 3------ -------|
B|1---------------1--------------|3---------------3--------------|
G|0---------------0--------------|0---------------0--------------|
D|-------------------------------|-------------------------------|
A|3---------------3--------------|-------------------------------|
E|------------------------------2/3---------------3--------------| shine until tomorrow Let it be



F C G C
e|------- ------- ------- -------|------- ------- 0------ -------|
B|-------------------------------|----------------1--------------|
G|2---------------0--------------|----------------0--------------|
D|3---------------2-------3------|2------------------------------|
A|------------------------5------|3---------------3--------------|
E|1------------------------------|-------------------------------|
I
e|------- ------- ------- -------|------- ------- ------- -------|
B|-------------------------------|-------------------------------|
G|-------------------------------|5-------5----------------------|
D|-------------------------------|5-------5----------------------|
A|-------------------------------|----------------7-\-5---3------|
E|-------------------------------|-------------------------------|



G
e|0------ ------- 0------ -------|3------ ------- 3------ -------|
B|1---------------1--------------|3---------------3--------------|
G|0---------------0--------------|0---------------0--------------|
D|-------------------------------|-------------------------------|
A|3---------------3--------------|-------------------------------|
E|------------------------------2/3---------------3--------------|
wake up to the sound of music
e|------- ------- ------- -------|------- ------- ------- -------|
B|-------------------------------|-------------------------------|
G|-------------------------------|-------------------------------|
D|-------------------------------|-------------------------------|
A|3------------------------------|-------------------------------|
E|-------------------------------|-------------------------------|




Am Am7 Fmaj7 F6
e|0------ ------- 0------ 0------|0------ ------- ------- -------|
B|1---------------1-------1------|1---------------3--------------|
G|2---------------2-------2------|2---------------2--------------|
D|-------------------------------|----------------3--------------|
A|0---------------0--------------|------------------------3------|
E|------------------------3------|1---------------1--------------|
Mother Mary comes to me



C G
e|0------ ------- 0------ -------|3------ ------- 3------ -------|
B|1---------------1--------------|3---------------3--------------|
G|0---------------0--------------|0---------------0--------------|
D|-------------------------------|-------------------------------|
A|3---------------3--------------|-------------------------------|
E|------------------------------2/3---------------3--------------|
speaking words of wisdom Let it be



F C G C Em
e|------- ------- ------- -------|0------ 0------ 0------ 0------|
B|-------------------------------|1-------1-------0-------0------|
G|2---------------0--------------|0-------0-------0-------0------|
D|3---------------2-------3------|-------------------------------|
A|------------------------5------|3-------3-------2-------2------|
E|1-------1----------------------|-------------------------------|
let it be



Am Am7
e|0------ ------- 0------ -------|0------ ------- 0------ -------|
B|1---------------1--------------|1---------------1--------------|
G|2---------------2--------------|2---------------2--------------|
D|-------------------------------|-------------------------------|
A|0-------0---------------0------|-------------------------------|
E|-------------------------------|3-------3---------------3------|
let it be let it be




Fmaj7 C
e|0------ ------- 0------ -------|0------ 0---0-- ----0-- 0------|
B|1---------------1--------------|1-------1---1-------1---1------|
G|2---------------2--------------|0-------0---0-------0---0------|
D|-------------------------------|-------------------------------|
A|-------------------------------|3-------3-------3-------3------|
E|1-----------------------1------|-------------------------------|
let it be



G
e|0------ ------- 0------ -------|3------ ------- 3------ -------|
B|1---------------1--------------|3---------------3--------------|
G|0---------------0--------------|0---------------0--------------|
D|-------------------------------|-------------------------------|
A|3---------------3--------------|-------------------------------|
E|-------------------------------|3---------------3--------------|
There will be an answer let it be.

e|------- ------- ------- -------|------- ------- ------- -------|
B|-------------------------------|-------------------------------|
G|-------------------------------|--------7-B-9---7-P-5---7------|
D|-------------------------------|-------------------------------|
A|-------------------------------|-------------------------------|
E|-------------------------------|-------------------------------|




F C G C
e|------- ------- ------- -------|0------ 0---0-- ----0-- 0------|
B|-------------------------------|1-------1---1-------1---1------|
G|2---------------0--------------|0-------0---0-------0---0------|
D|3---------------2-------3------|2------------------------------|
A|------------------------5------|3-------3-------3-------3------|
E|1------------------------------|-------------------------------|
Let it be
e|------- ------- ------- -------|------- ------- ------- -------|
B|-------------------------------|-------------------------------|
G|5------------------------------|-------------------------------|
D|-------------------------------|-------------------------------|
A|-------------------------------|-------------------------------|
E|-------------------------------|-------------------------------|




Am Am7
e|0------ ------- 0------ -------|0------ ------- 0------ -------|
B|1---------------1--------------|1---------------1--------------|
G|2---------------2--------------|2---------------2--------------|
D|-------------------------------|-------------------------------|
A|0-------0---------------0------|-------------------------------|
E|-------------------------------|3-------3---------------3------|
let it be let it be



Fmaj7 C
e|0------ ------- 0------ -------|0------ 0------ 0------ 0------|
B|1---------------1--------------|1-------1-------1-------1------|
G|2---------------2--------------|0-------0-------0-------0------|
D|-------------------------------|-------------------------------|
A|-------------------------------|3-------3-------3-------3------|
E|1---------------1--------------|-------------------------------|
let it be
e|------- ------- ------- -------|------- ------- ------- -------|
B|-------------------------------|-----------------------15-R-13-|
G|-------------------------------|-------------------------------|
D|-------------------------------|-------------------------------|
A|-------------------------------|-------------------------------|
E|-------------------------------|-------------------------------|




G
e|0------ ------- 0------ -------|3------ ------- 3------ -------|
B|1---------------1--------------|3---------------3--------------|
G|0---------------0--------------|0---------------0--------------|
D|-------------------------------|-------------------------------|
A|3-------3---------------3------|-------------------------------|
E|-------------------------------|3-------3---------------3------|
Whisper words of wisdom let it be.
e|------- ------- ------- -------|------- ------- ------- -------|
B|-------------------------------|-------------------------------|
G|14-----------------------------|-------------------------------|
D|-------------------------------|-------------------------------|
A|-------------------------------|-------------------------------|
E|-------------------------------|-------------------------------|




F C G C
e|------- ------- ------- -------|0------ 0---0-- ----0-- 0------|
B|-------------------------------|1-------1---1-------1---1------|
G|2---------------0--------------|0-------0---0-------0---0------|
D|3---------------2-------3------|-------------------------------|
A|------------------------5------|3-------3-------3-------3------|
E|1------------------------------|-------------------------------|




F C G C Bb F
e|5------ ------- ------- -------|------- ------- ------- -------|
B|6---------------8-------6-----4/5---------------3-------1------|
G|5---------------5-------5-----4/5---------------3-------2-----3/
D|------------------------------4/5---------------3-------3-----4/
A|-------------------------------|-------------------------------|
E|-------------------------------|-------------------------------|



(.
G F C
e|------- ------- ------- -------|------- ------- ------- -------|
B|----------------1--------------|1------------------------------|
G|4---------------2--------------|0------------------------------|
D|5---------------3--------------|2------------------------------|
A|-------------------------------|3------------------------------|
E|----------------1--------------|-------------------------------|









B Bend
R Release
/ slide up
\ slide down
H hammer-on
P pull-off
~ vibrato
+ harmonic
x Mute note
. - play note like a dot in standard notation
^ - ties two notes together
(. Pause

pjvill

Submitted by pjvill at Wed 14 Dec, 2005 5:10 pm

Author: ?
Composer: ?
Publisher: ?
Language: English

Reactions

CommonCrawl [Bot]

Follow Muzikum