The Beatles

The Beatles
Lady Madonna Ver 2 (Guitar tab)

--------------------------------------------------------------------
THE BEATLES - LADY MADONNA (Lennon/McCartney)Released as a single
with THE INNER LIGHT as B side on 15th March 1968.

--------------------------------------------------------------------

Tabbed by:PJVillanueva






Lady Madonna, children at your feet
Wonder how you manage to make ends meet
Who finds the money when you pay the rent
Did you think that money was heaven sent

Friday night arrives without a suitcase
Sunday morning creeping like a nun
Monday's child has learned to tie his bootlegs
See how they run

Lady Madonna, baby at your breast
Wonders how you manage to feed the rest
Pa pa pa pa...
See how they run

Lady Madonna lying on the bed
Listen to the music playing in your head

Tuesday afternoon is never ending
Wednesday morning papers didn't come
Thursday night you stocking needed mending
See how they run

Lady Madonna, children at your feet
Wonder how you manage to make ends meet






A D A D
e|------- ------- ------- -------|------- ------- ------- -------|
B|----------------3--3-----------|----------------3--------------|
G|5--6-------5----4--2------2----|5--6----5--4----2--2-------2---|
D|5--5-------5----0--0----0---0--|5--5----5--5----0-------0------|
A|0--0----3--4-------------------|0--0----3--4-------------------|
E|-------------------------------|-------------------------------|



A Dm Dadd9m Dm Dmsus4 A
e|------- ------- ------- -------|------- ------- ------- -------|
B|----------------3-------3------|3-------3-----/-2--------------|
G|5--6----5--4----2-------2------|2-------0--0--/-2--------------|
D|5--5----5--5----0--0----2--2---|3--3----3----------------------|
A|0--0----3--4-------------------|----------------0--0----0--0---|
E|-------------------------------|-------------------------------|




e|------- ------- ------- -------|------- ------- ------- -------|
B|----------------3--------------|----------------3--------------|
G|5--6-------5----4--2-------2---|5--6----5--4----2--0------2----|
D|5--5-------5----0--0----0------|5--5----5--5----0-----/-4---0--|
A|0--0----3--4-------------------|0--0----3--4-------------------|
E|-------------------------------|-------------------------------|
Lady Madonna, children at your feet



e|------- ------- ------- -------|------- ------- ------- -------|
B|----------------3-------3------|3-------3-------2--------------|
G|5--6----5--4----2-------2------|2-------0--0----2--------------|
D|5--5----5--5----0--0----2--2---|3--3----3-------2--------------|
A|0--0----3--4-------------------|----------------0--0----0--0---|
E|-------------------------------|-------------------------------|
Wonder how you manage to make ends meet



e|------- ------- ------- -------|------- ------- ------- -------|
B|----------------3--------------|-------------------------------|
G|5--6-------5----4--2------2----|5--6----5--4--2---2-----2------|
D|5--5-------5----0-------4---0--|5--5----5--5----0---0-------0--|
A|0--0----3--4-------------------|0--0----3--4-------------------|
E|-------------------------------|-------------------------------|
Who finds the money when you pay the rent



e|------- ------- ------- -------|------- ------- ------- -------|
B|----------------3-------3------|3-------3-----/-2--------------|
G|5--6----5--4----2-------2------|2-------0--0--/-2--------------|
D|5--5----5--5----0--0----2--2---|3--3----3----------------------|
A|0--0----3--4-------------------|----------------0--0----0--0---|
E|-------------------------------|-------------------------------|
Did you think that money was heaven sent



Dm Dm7 Dm6 F G G7 G6 G5
e|1------ 1------ 1------ 1------|------- ------- ------- -------|
B|3-------3-------3-------1------|3------------------------------|
G|2-------2-------2-------2------|0------------------------------|
D|0--0---------------------------|0--0----3--3----2--2----0--0---|
A|--------3--3----2--2----0--0---|-------------------------------|
E|-------------------------------|-------------------------------|
Friday night arrives without a suitcase


C Em Am G Am Aadd9m C6 Am
e|------- ------- ------- -------|------- ------- ------- -------|
B|1-------0-------1-------0------|1------------------------------|
G|0-------0-------2-------0------|2------------------------------|
D|2-------2-------2-------0------|2-----------------------2--2---|
A|3--3----2--2----0--0-----------|0--0----2--2----3--3-----------|
E|------------------------3--3---|-------------------------------|
Sunday morning creeping like a nun


Dm Dm7 Dm6 F G G7 G6 G5
e|1------ 1------ 1------ 1------|------- ------- ------- -------|
B|3-------3-------3-------0--1---|3------------------------------|
G|2-------2-------2-------2------|0------------------------------|
D|0--0---------------------------|0--0----3--3----2--2----0--0---|
A|--------3--3----2--2----0--0---|-------------------------------|
E|-------------------------------|-------------------------------|
Monday's child has learned to tie his bootlegs


C Bbm Esus4 E
e|0------ ------- 2------ -------|0------ ------- 0------ -------|
B|1---------------3--------------|0---------------0--------------|
G|0---------------4--------------|2---------------1--------------|
D|2---------------4--------------|2---------------2--------------|
A|3---------------2--------------|2---------------2--------------|
E|3------------------------------|0---------------0--------------|
See how they run



e|------- ------- ------- -------|------- ------- ------- -------|
B|----------------3--------------|----------------3--------------|
G|5--6-------5----4--2-------2---|5--6----5--4----2--2-------2---|
D|5--5-------5----0-------0------|5--5----5--5----0-------0------|
A|0--0----3--4-------------------|0--0----3--4-------------------|
E|-------------------------------|-------------------------------|
Lady Madonna, baby at your breast
e|------- ------- ------- -------|------- ------- ------- -------|
B|-------------------------------|-------------------------------|
G|----------------------------2--|----------------------------2--|
D|----------------0--0----3-4----|----------------0--0----3-4----|
A|0--0----3--4-------------------|0--0----3--4-------------------|
E|-------------------------------|-------------------------------|




e|------- ------- ------- -------|------- ------- ------- -------|
B|----------------3-------3------|3-------3-----/-2--------------|
G|5--6----5--4----2-------2------|2-------0--0--/-2--------------|
D|5--5----5--5----0--0----2--2---|3--3----3----------------------|
A|0--0----3--4-------------------|----------------0--0----0--0---|
E|-------------------------------|-------------------------------|
Wonders how you manage to feed the rest
e|------- ------- ------- -------|------- ------- ------- -------|
B|-------------------------------|-------------------------------|
G|-------------------------------|--------0--0----2--------------|
D|----------------0--0----2--2---|3--3---------------------------|
A|0--0----3--4-------------------|-------------------------------|
E|-------------------------------|-------------------------------|




x x x x
x x x x
e|------- ------- ------- -------|------- ------- ------- -------|
B|----------------3--3----3------|-------------------------------|
G|5--6------5-5---4--2----2------|5--6----5--4-2----2-----2------|
D|5--5------5-5---0-------0------|5--5----5--5----0---0----------|
A|0--0----3---4------------------|0--0----3--4-------------------|
E|-------------------------------|-------------------------------|

e|------- ------- ------- -------|------- ------- ------- -------|
B|-------------------------------|-------------------------------|
G|----------------------------2--|----------------------------2--|
D|----------------0--0----3-4----|----------------0--0----3-4----|
A|0--0----3--4-------------------|---0----3--4-------------------|
E|-------------------------------|-------------------------------|


x x x x
x x x x
e|------- ------- ------- -------|------- ------- ------- -------|
B|----------------3-------3------|3-------3-----/-2--------------|
G|5--6----5--4----2-------2------|2-------0--0--/-2--------------|
D|5--5----5--5----0--0----2--2---|3--3----3----------------------|
A|0--0----3--4-------------------|----------------0--0----0--0---|
E|-------------------------------|-------------------------------|

e|------- ------- ------- -------|------- ------- ------- -------|
B|-------------------------------|-------------------------------|
G|-------------------------------|--------0--0----2--------------|
D|----------------0--0----2--2---|3--3---------------------------|
A|---0----3--4-------------------|-------------------------------|
E|-------------------------------|-------------------------------|



Sax solo


e|1------ 1------ 1------ 1------|------- ------- ------- -------|
B|3-------3-------3-------1------|3------------------------------|
G|2-------2-------2-------2------|0------------------------------|
D|0--0---------------------------|0--0----3--3----2--2----0--0---|
A|--------3--3----2--2----0--0---|-------------------------------|
E|-------------------------------|-------------------------------|
(Pa pa pa pa pa pa pa pa pa)
e|------- 10----- ------- -------|------- -----10 ------- -------|
B|------------8B9-R-8P6---6--8---10-8-10-8-10/12-/12-8-----------|
G|----------------------7--------|---------------------9---------|
D|-------------------------------|-------------------------------|
A|-------------------------------|-------------------------------|
E|-------------------------------|-------------------------------|




e|------- ------- ------- -------|------- ------- ------- -------|
B|1-------0-------1-------0------|1------------------------------|
G|0-------0-------2-------0------|2------------------------------|
D|2-------2-------2-------0------|2-----------------------2--2---|
A|3--3----2--2----0--0-----------|0--0----2--2----3--3-----------|
E|------------------------3--3---|-------------------------------|
(Pa pa pa pa pa pa pa pa pa pa pa)
e|------- ------- ------- -------|------- ------- ------- -------|
B|-------------------------------|-------------------------------|
G|------------9-10H11R10-9H10H11H12P11P10P9----------------------|
D|---------10----------10--------|---------10-------9-9H1010H12--|
A|-------10----------------------|-----------10H1212-------------|
E|-------------------------------|-------------------------------|




e|1------ 1------ 1------ 1------|------- ------- ------- -------|
B|3-------3-------3-------1------|3------------------------------|
G|2-------2-------2-------2------|0------------------------------|
D|0--0---------------------------|0--0----3--3----2--2----0--0---|
A|--------3--3----2--2----0--0---|-------------------------------|
E|-------------------------------|-------------------------------|
(Pa pa pa pa pa pa pa pa pa)
e|------- ------- ------- -------|------- ------- ---7--- -------|
B|------------8-9H10P9P8-9H10P9P8|---8---8H9P8P7P6/8-------------|
G|------7-9-10----------7--------7-------------------------------|
D|-------------------------------|-------------------------------|
A|-------------------------------|-------------------------------|
E|10-----------------------------|-------------------------------|




e|0------ ------- 2------ -------|0------ ------- 0------ -------|
B|1---------------3--------------|0---------------0--------------|
G|0---------------4--------------|2---------------1--------------|
D|2---------------4--------------|2---------------2--------------|
A|3---------------2--------------|2---------------2--------------|
E|3------------------------------|0---------------0--------------|
See how they run
e|------- ------- ------- -------|------- ------- ------- -------|
B|-------------------------------|-------------------------------|
G|-------------------------------|-------------------------------|
D|-------------------------------|-------------------2-0----0----|
A|-------------------------------|------------------------3---3-2|
E|-------------------------------|-------------------------------|




e|------- ------- ------- -------|------- ------- ------- -------|
B|----------------3--4-----------|----------------3--------------|
G|5--6-------5----4--2------2----|5--6----5--4----2--2-------2---|
D|5--5-------5----0--0--------0--|5--5----5--5----0-------0------|
A|0--0----3--4-------------------|0--0----3--4-------------------|
E|-------------------------------|-------------------------------|
Lady Madonna lying on the bed
e|------- ------- ------- -------|------- ------- ------- -------|
B|-------------------------------|-------------------------------|
G|----------------------------2--|----------------------------2--|
D|----------------0--0----3-4----|----------------0--0----3-4----|
A|0--0----3--4-------------------|---0----3--4-------------------|
E|-------------------------------|-------------------------------|




e|------- ------- ------- -------|------- ------- ------- -------|
B|----------------3--------------|3-------3-------2--------------|
G|5--6----5--4----2--------------|2-------0--0----2--------------|
D|5--5----5--5----0--0----2--2---|3--3----3----------------------|
A|0--0----3--4-------------------|----------------0--0----0--0---|
E|-------------------------------|-------------------------------|
Listen to the music playing in your head
e|------- ------- ------- -------|------- ------- ------- -------|
B|-------------------------------|-------------------------------|
G|-------------------------------|--------0--0----2--------------|
D|----------------0--0----2--2---|3--3---------------------------|
A|---0----3--4-------------------|-------------------------------|
E|-------------------------------|-------------------------------|






e|------- ------- ------- -------|------- ------- ------- -------|
B|-------------------------------|-------------------------------|
G|5--6--------5-4---2-----2------|5--6----5--4----2--2-------2---|
D|5--5--------5-5-0---0----------|5--5----5--5----0-------0------|
A|0--0----3---4-4----------------|0--0----3--4-------------------|
E|-------------------------------|-------------------------------|

e|------- ------- ------- -------|------- ------- ------- -------|
B|-------------------------------|-------------------------------|
G|----------------------------2--|----------------------------2--|
D|----------------0--0----3-4----|----------------0--0----3-4----|
A|0--0----3--4-------------------|---0----3--4-------------------|
E|-------------------------------|-------------------------------|




e|------- ------- ------- -------|------- ------- ------- -------|
B|-------------------------------|3-------3-----/-2--------------|
G|5--6----5--4----2--------------|2-------0--0--/-2--------------|
D|5--5----5--5----0--0----2--2---|3--3----3----------------------|
A|0--0----3--4-------------------|----------------0--0----0--0---|
E|-------------------------------|-------------------------------|

e|------- ------- ------- -------|------- ------- ------- -------|
B|-------------------------------|-------------------------------|
G|-------------------------------|--------0--0----2--------------|
D|----------------0--0----2--2---|3--3---------------------------|
A|---0----3--4-------------------|-------------------------------|
E|-------------------------------|-------------------------------|






e|1------ 1------ 1------ 1------|------- ------- ------- -------|
B|3-------3-------3-------1------|3------------------------------|
G|2-------2-------2-------2------|0----------0-------0-------0---|
D|0--0---------------------------|0------------------------------|
A|--------3--3----2--2----0--0---|-------------------------------|
E|-------------------------------|3-------3-------3-------3------|
Tuesday afternoon is never ending
(Pa pa pa pa pa pa pa pa pa)


e|------- ------- ------- -------|------- ------- ------- -------|
B|1-------0-------1-------0------|1-------1-------1-------1------|
G|0-------0-------2-------0------|2-------2-------2-------2------|
D|2-------2-------2-------0------|2-------2-------2-------2--2---|
A|3--3----2--2----0--0-----------|0--0----2--2----3--3-----------|
E|------------------------3--3---|-------------------------------|
Wednesday morning papers didn't come
(Pa pa pa pa pa pa pa pa pa pa pa)



e|1------ 1------ 1------ 1------|------- ------- ------- -------|
B|3-------3-------3-------1------|3------------------------------|
G|2-------2-------2-------2------|0-------0--0-------0-------0---|
D|0--0---------------------------|0-------0----------------------|
A|--------3--3----2--2----0--0---|-------------------------------|
E|-------------------------------|3-------3-------3-------3------|
Thursday night you stocking needed mending
(Pa pa pa pa pa pa pa pa pa)



e|0------ ------- 2------ -------|0------ ------- 0------ -------|
B|1---------------3--------------|0---------------0--------------|
G|0---------------4--------------|2---------------1--------------|
D|2---------------4--------------|2---------------2--------------|
A|3---------------2--------------|2---------------2--------------|
E|3------------------------------|0---------------0--------------|
See how they run
e|------- ------- ------- -------|------- ------- ------- -------|
B|-------------------------------|-------------------------------|
G|-------------------------------|-------------------------------|
D|-------------------------------|-------------------2-0----0----|
A|-------------------------------|------------------------3---3-2|
E|-------------------------------|-------------------------------|




e|------- ------- ------- -------|------- ------- ------- -------|
B|----------------3--4-----------|----------------3--------------|
G|5--6-------5----4--2------2----|5--6----5--4----2--2------2----|
D|5--5-------5----0--0--------0--|5--5----5--5----0-------0---0--|
A|0--0----3--4-------------------|0--0----3--4-------------------|
E|-------------------------------|-------------------------------|
Lady Madonna, children at your feet
e|------- ------- ------- -------|------- ------- ------- -------|
B|-------------------------------|-------------------------------|
G|----------------------------2--|----------------------------2--|
D|----------------0--0----3-4----|----------------0--0----3-4----|
A|0--0----3--4-------------------|---0----3--4-------------------|
E|-------------------------------|-------------------------------|




e|------- ------- ------- -------|------- -------|
B|----------------3-------3------|3-------3------|
G|5--6----5--4----2-------2------|2-------0--0---|
D|5--5----5--5----0--0----2--2---|3--3----3------|
A|0--0----3--4-------------------|---------------|
E|-------------------------------|---------------|
Wonder how you manage to make ends meet
e|------- ------- ------- -------|------- -------|
B|-------------------------------|---------------|
G|-------------------------------|--------0--0---|
D|----------------0--0----2--2---|3--3-----------|
A|0--0----3--4-------------------|---------------|
E|-------------------------------|---------------|



(. x x x x x
A Bm7 Cm6 Bm7 A
e|5--5--- --5---- 5--5--- --5----|5------ 5--5--- ------- -------|
B|2--2------2-----3--3------3---/|4-------3--2-------------------|
G|2--2------2-----4--4------4---/|5-------4--2-------------------|
D|-------------------------------|-------------------------------|
A|0-------0---0---0-------0---0--|0--0----0--0-------------------|
E|-------------------------------|-------------------------------|

e|------- ------- ------- -------|------- ------- ------- -------|
B|-------------------------------|-------------------------------|
G|2--2------2-2---4--4-------4--4B5-------4--2-------------------|
D|-------------------------------|-------------------------------|
A|-------------------------------|-------------------------------|
E|-------------------------------|-------------------------------|



(.

e|5--5--- --5---- 5--5--- --5----|5------ 5--5--- ------- -------|
B|2--2------2-----3--3------3---/|4-------3--2-------------------|
G|2--2------2-----4--4------4---/|5-------4--2-------------------|
D|-------------------------------|-------------------------------|
A|0-------0---0---0-------0---0--|0--0----0--0-------------------|
E|-------------------------------|-------------------------------|










B Bend
R Release
/ Slide up
\ Slide down
H Hammer-on
P Pull-off
~ Vibrato
+ Harmonic
x Mute note
. Play note like a dot in standard notation
^ Ties two notes together
(. Pause

pjvill

Submitted by pjvill at Wed 14 Dec, 2005 5:10 pm

Author: ?
Composer: ?
Publisher: ?
Language: English

Reactions

CommonCrawl [Bot]

Follow Muzikum