The Beatles

The Beatles
Julia Ver 2 (Guitar tab)

--------------------------------------------------------------

THE BEATLES - JULIA (Lennon/McCartney) From THE WHITE ALBUM.
Released on 22nd November 1968.


--------------------------------------------------------------

Tabbed by:PJVillanueva




Half of what I say is meaningless
But I say it just to reach you, Julia.

Julia, Julia, oceanchild, calls me
So I sing this song of love, Julia
Julia, seashell eyes, windy smile, calls me
So I sing this song of love, Julia.

Her hair of floating sky is shimmering, glimmering
In the sun

Julia, Julia, morning moon, touch me
So I sing a song of love, Julia.

When I cannot speak my heart
I can only speak my mind, Julia.

Julia, sleeping sand, silent cloud, touch me
So I sing a song of love, Julia.

Hmmmmmmmmmhmmmhmmmmmm...............calls me
So I sing a song of love for Julia, Julia, Julia.





Use a capo on the second fret.



C Am7
e|3------ ------- ------- -------|3------ ------- ------- -------|
B|--------------------1----------|--------------------1----------|
G|------------0------------------|------------2------------------|
D|--------2---------------2------|--------2---------------2------|
A|3------------------------------|0------------------------------|
E|----------------3--------------|----------------0--------------|
Half of what I say is meaningless

Em
e|3------ ------- ------- -------|3------ ------- ------- -------|
B|--------------------0----------|--------------------0----------|
G|------------0------------------|------------0------------------|
D|--------2---------------2------|--------2---------------2------|
A|2------------------------------|2------------------------------|
E|----------------0--------------|----------------0--------------|


C Am7
e|3------ ------- ------- -------|3------ ------- ------- -------|
B|--------------------1----------|--------------------1----------|
G|------------0------------------|------------2------------------|
D|--------2---------------2------|--------2---------------2------|
A|3------------------------------|0------------------------------|
E|----------------3--------------|----------------0--------------|
But I say it just to reach you,


Em G
e|3------ ------- ------- -------|3------ ------- ------- -------|
B|--------------------0----------|--------------------3----------|
G|------------0------------------|------------0------------------|
D|--------2---------------2------|--------0---------------0------|
A|2------------------------------|2------------------------------|
E|----------------0--------------|----------------3--------------|
Julia.

C Am7
e|3------ ------- ------- -------|3------ ------- ------- -------|
B|--------------------1----------|--------------------1----------|
G|------------2------------------|------------2------------------|
D|--------2---------------2------|--------2---------------2------|
A|3------------------------------|0------------------------------|
E|----------------3--------------|----------------0--------------|
Julia

Gm7 Gm9
e|3------ ------- ------- -------|5------ ------- ------- -------|
B|--------------------3----------|--------------------3----------|
G|------------3------------------|------------3------------------|
D|--------3---------------3------|--------3---------------3------|
A|5------------------------------|5------------------------------|
E|----------------3--------------|----------------3--------------|
Julia

A
e|5------ ------- ------- -------|5------ ------- ------- -------|
B|--------------------5----------|--------------------5----------|
G|------------6------------------|------------6------------------|
D|--------5---------------5------|---------5--------------5------|
A|7------------------------------|7------------------------------|
E|----------------5--------------|----------------5--------------|
Ocean child

F9 Fm7
e|3------ ------- ------- -------|4------ ------- ------- -------|
B|--------------------1----------|--------------------1----------|
G|------------2------------------|------------1------------------|
D|--------1---------------1------|--------1---------------1------|
A|3------------------------------|3------------------------------|
E|----------------1--------------|----------------1--------------|
Calls me


C Am7
e|3------ ------- ------- -------|3------ ------- ------- -------|
B|--------------------1----------|--------------------1----------|
G|------------0------------------|------------2------------------|
D|--------2---------------2------|--------2---------------2------|
A|3------------------------------|0------------------------------|
E|----------------3--------------|----------------0--------------|
So I sing this song of love,


Em G
e|3------ ------- ------- -------|3------ ------- ------- -------|
B|--------------------0----------|--------------------3----------|
G|------------0------------------|------------0------------------|
D|--------2---------------2------|--------0---------------0------|
A|2------------------------------|2------------------------------|
E|----------------0--------------|----------------3--------------|
Julia.

C Am7
e|3------ ------- ------- -------|3------ ------- ------- -------|
B|--------------------1----------|--------------------1----------|
G|------------2------------------|------------2------------------|
D|--------2---------------2------|--------2---------------2------|
A|3------------------------------|0------------------------------|
E|----------------3--------------|----------------0--------------|
Julia

Gm7 Gm9
e|3------ ------- ------- -------|5------ ------- ------- -------|
B|--------------------3----------|--------------------3----------|
G|------------3------------------|------------3------------------|
D|--------3---------------3------|--------3---------------3------|
A|5------------------------------|5------------------------------|
E|----------------3--------------|----------------3--------------|
Seashell eyes

A
e|5------ ------- ------- -------|5------ ------- ------- -------|
B|--------------------5----------|--------------------5----------|
G|------------6------------------|------------6------------------|
D|--------5---------------5------|---------5--------------5------|
A|7------------------------------|7------------------------------|
E|----------------5--------------|----------------5--------------|
Windy smile

F9 Fm7
e|3------ ------- ------- -------|4------ ------- ------- -------|
B|--------------------1----------|--------------------1----------|
G|------------2------------------|------------1------------------|
D|--------1---------------1------|--------1---------------1------|
A|3------------------------------|3------------------------------|
E|----------------1--------------|----------------1--------------|
Calls me


C Am7
e|3------ ------- ------- -------|3------ ------- ------- -------|
B|--------------------1----------|--------------------1----------|
G|------------0------------------|------------2------------------|
D|--------2---------------2------|--------2---------------2------|
A|3------------------------------|0------------------------------|
E|----------------3--------------|----------------0--------------|
So I sing this song of love,


Em G
e|3------ ------- ------- -------|3------ ------- ------- -------|
B|--------------------0----------|--------------------3----------|
G|------------0------------------|------------0------------------|
D|--------2---------------2------|--------0---------------0------|
A|2------------------------------|2------------------------------|
E|----------------0--------------|----------------3--------------|
Julia.

C
e|3------ ------- ------- -------|3------ ------- ------- -------|
B|--------------------1----------|--------------------1----------|
G|------------0------------------|------------0------------------|
D|--------2---------------2------|--------2---------------2------|
A|3------------------------------|3------------------------------|
E|----------------3--------------|----------------3--------------|


Bm
e|2------ ------- ------- -------|2------ ------- ------- -------|
B|--------------------3----------|--------------------3----------|
G|------------4------------------|------------4------------------|
D|--------4---------------4------|--------4---------------4------|
A|2------------------------------|2------------------------------|
E|----------------2--------------|----------------2--------------|
Her hair of floating sky is

C
e|3------ ------- ------- -------|3------ ------- ------- -------|
B|--------------------1----------|--------------------1----------|
G|------------0------------------|------------0------------------|
D|--------2---------------2------|--------2---------------2------|
A|3------------------------------|3------------------------------|
E|----------------3--------------|----------------3--------------|
shimmering,

Am7 Am6
e|3------ ------- ------- -------|2------ ------- ------- -------|
B|--------------------1----------|--------------------1----------|
G|------------2------------------|------------2------------------|
D|--------2---------------2------|--------2---------------2------|
A|0------------------------------|0------------------------------|
E|----------------0--------------|----------------0--------------|
glimmering

Em7 Em6
e|------- ------- ------- -------|------- ------- ------- -------|
B|3-------------------3----------|2-------------------2----------|
G|------------0------------------|------------0------------------|
D|--------2---------------2------|--------2---------------2------|
A|2------------------------------|2------------------------------|
E|----------------0--------------|----------------0--------------|
in the sun

Emaug5 Em
e|------- ------- ------- -------|------- ------- ------- -------|
B|1-------------------1----------|0-------------------0----------|
G|------------0------------------|------------0------------------|
D|--------2---------------2------|--------2---------------2------|
A|2------------------------------|2------------------------------|
E|----------------0--------------|----------------0--------------|


C Am7
e|3------ ------- ------- -------|3------ ------- ------- -------|
B|--------------------1----------|--------------------1----------|
G|------------2------------------|------------2------------------|
D|--------2---------------2------|--------2---------------2------|
A|3------------------------------|0------------------------------|
E|----------------3--------------|----------------0--------------|
Julia

Gm7 Gm9
e|3------ ------- ------- -------|5------ ------- ------- -------|
B|--------------------3----------|--------------------3----------|
G|------------3------------------|------------3------------------|
D|--------3---------------3------|--------3---------------3------|
A|5------------------------------|5------------------------------|
E|----------------3--------------|----------------3--------------|
Julia

A
e|5------ ------- ------- -------|5------ ------- ------- -------|
B|--------------------5----------|--------------------5----------|
G|------------6------------------|------------6------------------|
D|--------5---------------5------|---------5--------------5------|
A|7------------------------------|7------------------------------|
E|----------------5--------------|----------------5--------------|
Morning moon

F9 Fm7
e|3------ ------- ------- -------|4------ ------- ------- -------|
B|--------------------1----------|--------------------1----------|
G|------------2------------------|------------1------------------|
D|--------1---------------1------|--------1---------------1------|
A|3------------------------------|3------------------------------|
E|----------------1--------------|----------------1--------------|
Touch me


C Am7
e|3------ ------- ------- -------|3------ ------- ------- -------|
B|--------------------1----------|--------------------1----------|
G|------------0------------------|------------2------------------|
D|--------2---------------2------|--------2---------------2------|
A|3------------------------------|0------------------------------|
E|----------------3--------------|----------------0--------------|
So I sing this song of love,


Em G
e|3------ ------- ------- -------|3------ ------- ------- -------|
B|--------------------0----------|--------------------3----------|
G|------------0------------------|------------0------------------|
D|--------2---------------2------|--------0---------------0------|
A|2------------------------------|2------------------------------|
E|----------------0--------------|----------------3--------------|
Julia.


C
e|3------ ------- ------- -------|3------ ------- ------- -------|
B|--------------------1----------|--------------------1----------|
G|------------0------------------|------------0------------------|
D|--------2---------------2------|--------2---------------2------|
A|3------------------------------|3------------------------------|
E|----------------3--------------|----------------3--------------|


Am7
e|3------ ------- ------- -------|3------ ------- ------- -------|
B|--------------------1----------|--------------------1----------|
G|------------0------------------|------------2------------------|
D|--------2---------------2------|--------2---------------2------|
A|3------------------------------|0------------------------------|
E|----------------3--------------|----------------0--------------|
When I cannot sing my heart

Em
e|3------ ------- ------- -------|3------ ------- ------- -------|
B|--------------------0----------|--------------------0----------|
G|------------0------------------|------------0------------------|
D|--------2---------------2------|--------2---------------2------|
A|2------------------------------|2------------------------------|
E|----------------0--------------|----------------0--------------|


C Am7
e|3------ ------- ------- -------|3------ ------- ------- -------|
B|--------------------1----------|--------------------1----------|
G|------------0------------------|------------2------------------|
D|--------2---------------2------|--------2---------------2------|
A|3------------------------------|0------------------------------|
E|----------------3--------------|----------------0--------------|
I can only speak my mind


Em G
e|3------ ------- ------- -------|3------ ------- ------- -------|
B|--------------------0----------|--------------------3----------|
G|------------0------------------|------------0------------------|
D|--------2---------------2------|--------0---------------0------|
A|2------------------------------|2------------------------------|
E|----------------0--------------|----------------3--------------|
Julia.

C Am7
e|3------ ------- ------- -------|3------ ------- ------- -------|
B|--------------------1----------|--------------------1----------|
G|------------2------------------|------------2------------------|
D|--------2---------------2------|--------2---------------2------|
A|3------------------------------|0------------------------------|
E|----------------3--------------|----------------0--------------|
Julia

Gm7 Gm9
e|3------ ------- ------- -------|5------ ------- ------- -------|
B|--------------------3----------|--------------------3----------|
G|------------3------------------|------------3------------------|
D|--------3---------------3------|--------3---------------3------|
A|5------------------------------|5------------------------------|
E|----------------3--------------|----------------3--------------|
Sleeping sand

A
e|5------ ------- ------- -------|5------ ------- ------- -------|
B|--------------------5----------|--------------------5----------|
G|------------6------------------|------------6------------------|
D|--------5---------------5------|---------5--------------5------|
A|7------------------------------|7------------------------------|
E|----------------5--------------|----------------5--------------|
Silent cloud

F9 Fm7
e|3------ ------- ------- -------|4------ ------- ------- -------|
B|--------------------1----------|--------------------1----------|
G|------------2------------------|------------1------------------|
D|--------1---------------1------|--------1---------------1------|
A|3------------------------------|3------------------------------|
E|----------------1--------------|----------------1--------------|
Touch me


C Am7
e|3------ ------- ------- -------|3------ ------- ------- -------|
B|--------------------1----------|--------------------1----------|
G|------------0------------------|------------2------------------|
D|--------2---------------2------|--------2---------------2------|
A|3------------------------------|0------------------------------|
E|----------------3--------------|----------------0--------------|
So I sing a song of love,


Em G
e|3------ ------- ------- -------|3------ ------- ------- -------|
B|--------------------0----------|--------------------3----------|
G|------------0------------------|------------0------------------|
D|--------2---------------2------|--------0---------------0------|
A|2------------------------------|2------------------------------|
E|----------------0--------------|----------------3--------------|
Julia.


C Am7
e|3------ ------- ------- -------|3------ ------- ------- -------|
B|--------------------1----------|--------------------1----------|
G|------------0------------------|------------2------------------|
D|--------2---------------2------|--------2---------------2------|
A|3------------------------------|0------------------------------|
E|----------------3--------------|----------------0--------------|


Gm7 Gm9
e|3------ ------- ------- -------|5------ ------- ------- -------|
B|--------------------3----------|--------------------3----------|
G|------------3------------------|------------3------------------|
D|--------3---------------3------|--------3---------------3------|
A|5------------------------------|5------------------------------|
E|----------------3--------------|----------------3--------------|
HmmmmmmmmmmmmmmmmmmmmmmmHmmmmmmmHmmmmmmmmmmmmmmm

A
e|5------ ------- ------- -------|5------ ------- ------- -------|
B|--------------------5----------|--------------------5----------|
G|------------6------------------|------------6------------------|
D|--------5---------------5------|---------5--------------5------|
A|7------------------------------|7------------------------------|
E|----------------5--------------|----------------5--------------|


F9 Fm7
e|3------ ------- ------- -------|4------ ------- ------- -------|
B|--------------------1----------|--------------------1----------|
G|------------2------------------|------------1------------------|
D|--------1---------------1------|--------1---------------1------|
A|3------------------------------|3------------------------------|
E|----------------1--------------|----------------1--------------|
Calls me


C Am7
e|3------ ------- ------- -------|3------ ------- ------- -------|
B|--------------------1----------|--------------------1----------|
G|------------0------------------|------------2------------------|
D|--------2---------------2------|--------2---------------2------|
A|3------------------------------|0------------------------------|
E|----------------3--------------|----------------0--------------|
So I sing a song of love, for


Em C
e|3------ ------- ------- -------|3------ ------- ------- -------|
B|--------------------0----------|--------------------1----------|
G|------------0------------------|------------0------------------|
D|--------2---------------2------|--------2---------------2------|
A|2------------------------------|3------------------------------|
E|----------------0--------------|----------------3--------------|
Julia.


Em C
e|3------ ------- ------- -------|3------ ------- ------- -------|
B|--------------------0----------|--------------------1----------|
G|------------0------------------|------------0------------------|
D|--------2---------------2------|--------2---------------2------|
A|2------------------------------|3------------------------------|
E|----------------0--------------|----------------3--------------|
Julia


Em G
e|3------ ------- ------- -------|3------ ------- ------- -------|
B|--------------------0----------|--------------------3----------|
G|------------0------------------|------------0------------------|
D|--------2---------------2------|--------0---------------0------|
A|2------------------------------|2------------------------------|
E|----------------0--------------|----------------3--------------|
Julia

(.
Cmaj7
e|------- 0------ ------- -------|------- ------- ------- -------|
B|----0--------------------------|-------------------------------|
G|---0---------------------------|-------------------------------|
D|--2----------------------------|-------------------------------|
A|-3-----------------------------|-------------------------------|
E|3------------------------------|-------------------------------|








B Bend
R Release
/ slide up
\ slide down
H hammer-on
P pull-off
~ vibrato
+ harmonic
x Mute note
. - play note like a dot in standard notation
^ - ties two notes together
(. Pause

pjvill

Submitted by pjvill at Wed 14 Dec, 2005 5:08 pm

Author: ?
Composer: ?
Publisher: ?
Language: English

Reactions

CommonCrawl [Bot]

Follow Muzikum