The Beatles

The Beatles
It Won't Be Long Ver 2 (Guitar tab)

-------------------------------------------------------------------------

THE BEATLES - IT WON'T BE LONG (Lennon/NcCartney) From WITH THE BEATLES
album. Released on 22nd November 1963.


-------------------------------------------------------------------------

Tabbed by:PJVillanueva






It won't be long yeh, yeh,
It won't be long yeh, yeh,
It won't be long yeh, yeh,
Till I belong to you.

Ev'ry night when ev'rybody has fun,
Here am I sitting all on my own,

It won't be long yeh, yeh,
It won't be long yeh, yeh,
It won't be long yeh, yeh,
Till I belong to you.

Since you left me I'm so alone,
Now you're coming, you're coming home,
I'll be good like I know I should,

Ev'ry night the tears come down from my eyes,
Ev'ry day I've done nothing but cry.
It won't be long yeh, yeh.

Since you left me I'm so alone,
Now you're coming, you're coming home,
I'll be good like I know I should,
You're coming home, you're coming home.

Ev'ry day we'll be happy, I know,
Now I know that you won't leave me no more.
It won't be long yeh, yeh.


It won't be

C#m
e|------- 4---4-- ------- 4------|------- 4---4-- ------- 4---4--|
B|--------5---5-----------5------|--------5---5-----------5---5--|
G|--------6---6-----------6------|--------6---6-----------6---6--|
D|--------6---6-----------6------|--------6---6-----------6---6--|
A|--------4---4-----------4------|--------4---4-----------4---4--|
E|-------------------------------|-------------------------------|
long yeh, yeh, yeh It won't be
(yeh, yeh, yeh
E
e|------- 4---4-- ------- 4---4--|------- 4---4-- ------- 4---4--|
B|--------5---5-----------5---5--|--------5---5-----------5---5--|
G|--------4---4-----------4---4--|--------4---4-----------4---4--|
D|--------6---6-----------6---6--|--------6---6-----------6---6--|
A|--------7---7-----------7---7--|--------7---7-----------7---7--|
E|-------------------------------|-------------------------------|
long yeh, yeh, yeh It won't be
yeh, yeh, yeh

C#m A Bbdim
e|------- 4---4-- ------- 4------|0------ 0------ 0------ 0------|
B|--------5---5-----------5------|2-------2-------2-------2------|
G|--------6---6-----------6------|2-------2-------0-------0------|
D|--------6---6-----------6------|2-------2-------2-------2------|
A|--------4---4-----------4------|0-------0-------1-------1------|
E|-------------------------------|-------------------------------|
long yeh, Till I belong to
yeh,)

E
e|------- ------- ------- -------|------- ------- ------- -------|
B|--------0---0-----------0---0--|--------0---0-----------0---0--|
G|--------1---1-----------1---1--|--------1---1-----------1---1--|
D|--------2---2-----------2---2--|--------2---2-----------2---2--|
A|--------2---2-----------2---2--|--------2---2-----------2---2--|
E|--------0---0-----------0---0--|--------0---0-----------0---0--|
you
e|------- ------- ------- -------|------- ------- ------- -------|
B|-------------------------------|-------------------------------|
G|-------------------------------|-------------------------------|
D|--------2---1------------------|--------2---1------------------|
A|--------------/-4---2----------|--------------/-4---2----------|
E|------------------------3B4----|0-----------------------3B4----|


C E
e|------- ------- ------- -------|------- ------- ------- -------|
B|--------0---0-----------0---1--|--------1---1-----------1---0--|
G|--------1---1-----------1---0--|--------0---0-----------0---1--|
D|--------2---2-----------2---2--|--------2---2-----------2---2--|
A|--------2---2-----------2---3--|--------3---3-----------3---2--|
E|--------0---0-----------0---3--|--------3---3-----------3---0--|
Ev'ry night when ev'rybody has
e|------- ------- ------- -------|------- ------- ------- -------|
B|-------------------------------|-------------------------------|
G|-------------------------------|-------------------------------|
D|-------------------------------|-------------------------------|
A|-------------------------------|-------------------------------|
E|0------------------------------|-------------------------------|



e|------- ------- ------- -------|------- ------- ------- -------|
B|--------0---0-----------0------|--------0---0-----------0---0--|
G|--------1---1-----------1------|--------1---1-----------1---1--|
D|--------2---2-----------2------|--------2---2-----------2---2--|
A|--------2---2-----------2------|--------2---2-----------2---2--|
E|--------0---0-----------0------|--------0---0-----------0---0--|
fun, Here am I
e|------- ------- ------- -------|------- ------- ------- -------|
B|-------------------------------|-------------------------------|
G|-------------------------------|-------------------------------|
D|--------2---1------------------|-------------------------------|
A|--------------/-4---2----------|-------------------------------|
E|------------------------3B4----|0------------------------------|


C E
e|------- ------- ------- -------|------- ------- ------- -------|
B|--------1---1-----------1---0--|--------0---0-----------0------|
G|--------0---0-----------0---1--|--------1---1-----------1------|
D|--------2---2-----------2---2--|--------2---2-----------2------|
A|--------3---3-----------3---2--|--------2---2-----------2------|
E|--------3---3-----------3---0--|--------0---0-----------0------|
sitting all on my own,
e|------- ------- ------- -------|------- ------- ------- -------|
B|-------------------------------|-------------------------------|
G|-------------------------------|-------------------------------|
D|-------------------------------|--------2---1------------------|
A|-------------------------------|--------------/-4---2----------|
E|-------------------------------|------------------------3B4----|



e|------- ------- ------- -------|
B|--------0-0-0-0-0--------------|
G|--------1-1-1-1-1--------------|
D|--------2-2-2-2-2--------------|
A|--------2-2-2-2-2--------------|
E|--------0-0-0-0-0--------------|
It won't be
e|------- ------- ------- -------|
B|-------------------------------|
G|-------------------------------|
D|-------------------------------|
A|-------------------------------|
E|-------------------------------|


C#m
e|------- 4---4-- ------- 4---4--|------- 4---4-- ------- 4---4--|
B|--------5---5-----------5---5--|--------5---5-----------5---5--|
G|--------6---6-----------6---6--|--------6---6-----------6---6--|
D|--------6---6-----------6---6--|--------6---6-----------6---6--|
A|--------4---4-----------4---4--|--------4---4-----------4---4--|
E|-------------------------------|-------------------------------|
long yeh, yeh, yeh It won't be
(yeh, yeh, yeh
E
e|------- 4---4-- ------- 4---4--|------- 4---4-- ------- 4---4--|
B|--------5---5-----------5---5--|--------5---5-----------5---5--|
G|--------4---4-----------4---4--|--------4---4-----------4---4--|
D|--------6---6-----------6---6--|--------6---6-----------6---6--|
A|--------7---7-----------7---7--|--------7---7-----------7---7--|
E|-------------------------------|-------------------------------|
long yeh, yeh, yeh It won't be
yeh, yeh, yeh

C#m A Bbdim
e|------- 4---4-- ------- 4------|0------ ------- 0------ -------|
B|--------5---5-----------5------|2---------------2--------------|
G|--------6---6-----------6------|2---------------0--------------|
D|--------6---6-----------6------|2---------------2--------------|
A|--------4---4-----------4------|0---------------1--------------|
E|-------------------------------|-------------------------------|
long yeh, Till I belong to
yeh,)

E
e|------- ------- ------- -------|------- ------- ------- -------|
B|--------0---0-----------0------|--------0---0-----------0---0--|
G|--------1---1-----------1------|--------1---1-----------1---1--|
D|--------2---2-----------2------|--------2---2-----------2---2--|
A|--------2---2-----------2------|--------2---2-----------2---2--|
E|--------0---0-----------0------|--------0---0-----------0---0--|
you Since you
e|------- ------- ------- -------|------- ------- ------- -------|
B|-------------------------------|-------------------------------|
G|-------------------------------|-------------------------------|
D|--------2---1------------------|--------2---1------------------|
A|--------------/-4---2----------|--------------/-4---2----------|
E|------------------------3B4----|0-----------------------3B4----|


Emaj7
e|------- ------- ------- -------|------- ------- ------- -------|
B|--------0---0-----------0---0--|--------0---0-----------0---0--|
G|--------1---1-----------1---1--|--------1---1-----------1---1--|
D|--------2---2-----------2---2--|--------1---1-----------1---1--|
A|--------2---2-----------2---2--|--------2---2-----------2---2--|
E|-------------------------------|-------------------------------|
left me I'm so alone, Now you're
e|------- ------- ------- -------|------- ------- ------- -------|
B|-------------------------------|-------------------------------|
G|-------------------------------|-------------------------------|
D|-------------------------------|-------------------------------|
A|-------------------------------|-------------------------------|
E|0------------------------------|-------------------------------|


E7 C#7
e|------- ------- ------- -------|------- ------- ------- -------|
B|--------0---0-----------0---0--|--------2---2-----------2---2--|
G|--------1---1-----------1---1--|--------4---4-----------4---4--|
D|--------0---0-----------0---0--|--------3---3-----------3---3--|
A|--------2---2-----------2---2--|--------4---4-----------4---4--|
E|-------------------------------|-------------------------------|
coming, you're coming home,

A B
e|------- ------- ------- -------|------- ------- ------- -------|
B|--------2---2-----------2------|--------4---4-----------4------|
G|--------2---2-----------2------|--------4---4-----------4------|
D|--------2---2-----------2------|--------4---4-----------4------|
A|--------0---0-----------0------|--------2---2-----------2------|
E|-------------------------------|-------------------------------|
I'll be good like I know I should You're coming

F#7 B7
e|------- ------- ------- -------|5---5-- 5---5-- 5---5-- 5---5--|
B|--------5---5-----------5------|4---4---4---4---4---4---4---4--|
G|--------3---3-----------3------|2---2---2---2---2---2---2---2--|
D|--------2---2-----------2------|4---4---4---4---4---4---4---4--|
A|--------4---4-----------4------|2---2---2---2---2---2---2---2--|
E|--------2---2-----------2------|-------------------------------|
home, you're coming home.

E C
e|------- ------- ------- -------|------- ------- ------- -------|
B|--------0---0-----------0------|--------1---1-----------1------|
G|--------1---1-----------1------|--------0---0-----------0------|
D|--------2---2-----------2------|--------2---2-----------2------|
A|--------2---2-----------2------|--------3---3-----------3------|
E|--------0---0-----------0------|--------3---3-----------3------|
Ev'ry night the tears come down from my

E
e|------- ------- ------- -------|------- ------- ------- -------|
B|--------0---0-----------0------|--------0---------------0------|
G|--------1---1-----------1------|--------1---------------1------|
D|--------2---2-----------2------|--------2---------------2------|
A|--------2---2-----------2------|--------2---------------2------|
E|--------0---0-----------0------|--------0---------------0------|
eyes, Ev'ry day
e|------- ------- ------- -------|------- ------- ------- -------|
B|-------------------------------|-------------------------------|
G|-------------------------------|-------------------------------|
D|--------2---1------------------|-------------------------------|
A|--------------/-4---2----------|-------------------------------|
E|------------------------3B4----|0------------------------------|


C E
e|------- ------- ------- -------|------- ------- ------- -------|
B|--------1---------------1---0--|--------0---0-----------0------|
G|--------0---------------0---1--|--------1---1-----------1------|
D|--------2---------------2---2--|--------2---2-----------2------|
A|--------3---------------3---2--|--------2---2-----------2------|
E|--------3---------------3---0--|--------0---0-----------0------|
I've done nothing but cry.
e|------- ------- ------- -------|------- ------- ------- -------|
B|-------------------------------|-------------------------------|
G|-------------------------------|-------------------------------|
D|-------------------------------|--------2---1------------------|
A|-------------------------------|--------------/-4---2----------|
E|-------------------------------|------------------------3B4----|



e|------- ------- ------- -------|
B|----0---0-0-0-0-0--------------|
G|----1---1-1-1-1-1--------------|
D|----2---2-2-2-2-2--------------|
A|----2---2-2-2-2-2--------------|
E|----0---0-0-0-0-0--------------|
It won't be
e|------- ------- ------- -------|
B|-------------------------------|
G|-------------------------------|
D|-------------------------------|
A|-------------------------------|
E|0------------------------------|


C#m
e|------- 4---4-- ------- 4------|------- 4---4-- ------- 4---4--|
B|--------5---5-----------5------|--------5---5-----------5---5--|
G|--------6---6-----------6------|--------6---6-----------6---6--|
D|--------6---6-----------6------|--------6---6-----------6---6--|
A|--------4---4-----------4------|--------4---4-----------4---4--|
E|-------------------------------|-------------------------------|
long yeh, yeh, yeh It won't be
(yeh, yeh, yeh
E
e|------- 4---4-- ------- 4---4--|------- 4---4-- ------- 4------|
B|--------5---5-----------5---5--|--------5---5-----------5------|
G|--------4---4-----------4---4--|--------4---4-----------4------|
D|--------6---6-----------6---6--|--------6---6-----------6------|
A|--------7---7-----------7---7--|--------7---7-----------7------|
E|-------------------------------|-------------------------------|
long yeh, yeh, yeh It won't be
yeh, yeh, yeh

C#m A Bbdim
e|------- 4---4-- ------- 4------|0------ 0------ 0------ 0------|
B|--------5---5-----------5------|2-------2-------2-------2------|
G|--------6---6-----------6------|2-------2-------0-------0------|
D|--------6---6-----------6------|2-------2-------2-------2------|
A|--------4---4-----------4------|0-------0-------1-------1------|
E|-------------------------------|-------------------------------|
long yeh, Till I belong to
yeh,)

E
e|------- 0---0-- ------- 0---0--|------- 0---0-- ------- 0---0--|
B|--------0---0-----------0---0--|--------0---0-----------0---0--|
G|--------1---1-----------1---1--|--------1---1-----------1---1--|
D|--------2---2-----------2---2--|--------2---2-----------2---2--|
A|--------2---2-----------2---2--|--------2---2-----------2---2--|
E|--------0---0-----------0---0--|--------0---0-----------0---0--|
you Since you
e|------- ------- ------- -------|------- ------- ------- -------|
B|-------------------------------|-------------------------------|
G|-------------------------------|-------------------------------|
D|--------2---1------------------|--------2---1------------------|
A|--------------/-4---2----------|--------------/-4---2----------|
E|------------------------3B4----|0-----------------------3B4----|


Emaj7
e|------- ------- ------- -------|------- ------- ------- -------|
B|--------0---0-----------0---0--|--------0---0-----------0---0--|
G|--------1---1-----------1---1--|--------1---1-----------1---1--|
D|--------2---2-----------2---2--|--------1---1-----------1---1--|
A|--------2---2-----------2---2--|--------2---2-----------2---2--|
E|-------------------------------|-------------------------------|
left me I'm so alone, Now you're
e|------- ------- ------- -------|------- ------- ------- -------|
B|-------------------------------|-------------------------------|
G|-------------------------------|-------------------------------|
D|-------------------------------|-------------------------------|
A|-------------------------------|-------------------------------|
E|0------------------------------|-------------------------------|


E7 C#7
e|------- ------- ------- -------|------- ------- ------- -------|
B|--------0---0-----------0---0--|--------2---2-----------2---2--|
G|--------1---1-----------1---1--|--------4---4-----------4---4--|
D|--------0---0-----------0---0--|--------3---3-----------3---3--|
A|--------2---2-----------2---2--|--------4---4-----------4---4--|
E|-------------------------------|-------------------------------|
coming, you're coming home,


A B
e|------- ------- ------- -------|------- ------- ------- -------|
B|--------2---2-----------2------|--------4---4-----------4------|
G|--------2---2-----------2------|--------4---4-----------4------|
D|--------2---2-----------2------|--------4---4-----------4------|
A|--------0---0-----------0------|--------2---2-----------2------|
E|-------------------------------|-------------------------------|
I'll be good like I know I should You're coming


F#7 B7
e|------- ------- ------- -------|5---5-- 5---5-- 5---5-- 5---5--|
B|--------5---5-----------5------|4---4---4---4---4---4---4---4--|
G|--------3---3-----------3------|2---2---2---2---2---2---2---2--|
D|--------2---2-----------2------|4---4---4---4---4---4---4---4--|
A|--------4---4-----------4------|2---2---2---2---2---2---2---2--|
E|--------2---2-----------2------|-------------------------------|
home, you're coming home.


E C
e|------- ------- ------- -------|------- ------- ------- -------|
B|--------0---0-----------0------|--------1---1-----------1------|
G|--------1---1-----------1------|--------0---0-----------0------|
D|--------2---2-----------2------|--------2---2-----------2------|
A|--------2---2-----------2------|--------3---3-----------3------|
E|--------0---0-----------0------|--------3---3-----------3------|
Ev'ry day We'll be happy I


E
e|------- ------- ------- -------|------- ------- ------- -------|
B|--------0---0-----------0------|--------0---0-----------0------|
G|--------1---1-----------1------|--------1---1-----------1------|
D|--------2---2-----------2------|--------2---2-----------2------|
A|--------2---2-----------2------|--------2---2-----------2------|
E|--------0---0-----------0------|--------0---0-----------0------|
know Now I know that
e|------- ------- ------- -------|------- ------- ------- -------|
B|-------------------------------|-------------------------------|
G|-------------------------------|-------------------------------|
D|--------2---1------------------|-------------------------------|
A|--------------/-4---2----------|-------------------------------|
E|------------------------3B4----|0------------------------------|


C E
e|------- ------- ------- -------|------- ------- ------- -------|
B|--------1---1-----------1---1--|--------0---0-----------0---0--|
G|--------0---0-----------0---0--|--------1---1-----------1---1--|
D|--------2---2-----------2---2--|--------2---2-----------2---2--|
A|--------3---3-----------3---3--|--------2---2-----------2---2--|
E|--------3---3-----------3---3--|--------0---0-----------0---0--|
you won't leave me no more
e|------- ------- ------- -------|------- ------- ------- -------|
B|-------------------------------|-------------------------------|
G|-------------------------------|-------------------------------|
D|-------------------------------|--------2---1------------------|
A|-------------------------------|--------------/-4---2----------|
E|-------------------------------|------------------------3B4----|




e|------- ------- ------- -------|
B|--------0-0-0-0-0--------------|
G|--------1-1-1-1-1--------------|
D|--------2-2-2-2-2--------------|
A|--------2-2-2-2-2--------------|
E|--------0-0-0-0-0--------------|
It won't be
e|------- ------- ------- -------|
B|-------------------------------|
G|-------------------------------|
D|-------------------------------|
A|-------------------------------|
E|0------------------------------|


C#m
e|------- 4---4-- ------- 4---4--|------- 4---4-- ------- 4---4--|
B|--------5---5-----------5---5--|--------5---5-----------5---5--|
G|--------6---6-----------6---6--|--------6---6-----------6---6--|
D|--------6---6-----------6---6--|--------6---6-----------6---6--|
A|--------4---4-----------4---4--|--------4---4-----------4---4--|
E|-------------------------------|-------------------------------|
long yeh, yeh, yeh It won't be
(yeh, yeh, yeh
E
e|------- 4---4-- ------- 4------|------- 4---4-- ------- 4------|
B|--------5---5-----------5------|--------5---5-----------5------|
G|--------4---4-----------4------|--------4---4-----------4------|
D|--------6---6-----------6------|--------6---6-----------6------|
A|--------7---7-----------7------|--------7---7-----------7------|
E|-------------------------------|-------------------------------|
long yeh, yeh, yeh It won't be
yeh, yeh, yeh

(.
C#m A
e|------- 4---4-- ------- 4------|0------ ------- ------- -------|
B|--------5---5-----------5------|2------------------------------|
G|--------6---6-----------6------|2------------------------------|
D|--------6---6-----------6------|2------------------------------|
A|--------4---4-----------4------|0------------------------------|
E|-------------------------------|-------------------------------|
long yeh, Till I belong to
yeh,)

(.
G7 F#7 F7 Emaj7
e|------- ------- ------- -------|------- ------- ------- -------|
B|--------3-------2-------1------|0------------------------------|
G|--------4-------3-------2------|1------------------------------|
D|--------3-------2-------1------|1------------------------------|
A|--------5-------4-------4------|2------------------------------|
E|--------3-------2-------1------|0------------------------------|
you
e|------- ------- ------- -------|------- ------- ------- -------|
B|-------------------------------|4------------------------------|
G|-------------------------------|4------------------------------|
D|-------------------------------|6------------------------------|
A|-------------------------------|6------------------------------|
E|-------------------------------|0------------------------------|









B Bend
R Release
/ slide up
\ slide down
H hammer-on
P pull-off
~ vibrato
+ harmonic
x Mute note
. - play note like a dot in standard notation
^ - ties two notes together
(. Pause

pjvill

Submitted by pjvill at Sat 10 Dec, 2005 5:12 am

Author: ?
Composer: ?
Publisher: ?
Language: English

Reactions

CommonCrawl [Bot]

Follow Muzikum