The Beatles

The Beatles
If I Fell Ver 2 (Guitar tab)

--------------------------------------------------------------------

THE BEATLES - IF I FELL (Lennon/McCartney) From A HARD DAY'S NIGHT
album. Released March 20th 1964.


--------------------------------------------------------------------

Tabbed by:PJVillanueva






If I fell in love with you
Would you promise to be true
And help me understand
'cause I've been in love before
And I found that love was more
Than just holding hands

If I give my heart to you
I must be sure
From the very start
That you would love me more than her

If I trust in you oh please
Don't run and hide
If I love you too oh please
Don't hurt my pride like her
'cause I couldn't stand the pain
And I would be sad if our new love was in vain

So I hope you see that I
Would love to love you
And that she will cry
When she learns we are two

If I fell in love with you






e|------- ------- ------- -------|------- ------- ------- -------|
B|-------------------------------|-------------------------------|
G|-------------------------------|-------------------------------|
D|-------------------------------|-------------------------------|
A|-------------------------------|-------------------------------|
E|-------------------------------|-------------------------------|
If I
Ebm D
e|2------ 2------ 2---2-- 2------|2------ 2------ 2---2-- 2------|
B|4-------4-------4---4---4------|3-------3-------3---3---3------|
G|3-------3-------3---3---3------|2-------2-------2---2---2------|
D|-------------------------------|-------------------------------|
A|-------------------------------|-------------------------------|
E|-------------------------------|-------------------------------|
fell in love with you would you promise to be true and

e|------- ------- ------- -------|------- ------- ------- -------|
B|-------------------------------|-------------------------------|
G|8------------------------------|7------------------------------|
D|8------------------------------|7------------------------------|
A|6------------------------------|5------------------------------|
E|-------------------------------|-------------------------------|



C# Bbm
e|1------ 1---1-- 1---1-- 1------|1---1-- 1---1-- 1---1-- 1------|
B|2-------2---2---2---2---2------|2---2---2---2---2---2---2------|
G|1-------1---1---1---1---1------|3---3---3---3---3---3---3------|
D|-------------------------------|-------------------------------|
A|-------------------------------|-------------------------------|
E|-------------------------------|-------------------------------|
help me understand 'cause I've

e|------- ------- ------- -------|------- ------- ------- -------|
B|-------------------------------|2------------------------------|
G|6------------------------------|3------------------------------|
D|6------------------------------|3------------------------------|
A|4------------------------------|1------------------------------|
E|-------------------------------|-------------------------------|



Ebm D
e|2------ 2------ 2------ 2------|2------ 2------ 2---2-- 2------|
B|4-------4-------4-------4------|3-------3-------3---3---3------|
G|3-------3-------3-------3------|2-------2-------2---2---2------|
D|-------------------------------|-------------------------------|
A|-------------------------------|-------------------------------|
E|-------------------------------|-------------------------------|
been in love before and I found that love was more than

e|------- ------- ------- -------|------- ------- ------- -------|
B|-------------------------------|-------------------------------|
G|8------------------------------|7------------------------------|
D|8------------------------------|7------------------------------|
A|6------------------------------|5------------------------------|
E|6------------------------------|5------------------------------|



Em A
e|0------ 0---0-- 0------ 0------|0------ 0--0--- 0---0-- 0------|
B|0-------0---0---0-------0------|2-------2--2----2---2---2------|
G|0-------0---0---0-------0------|2-------2--2----2---2---2------|
D|2-------2---2---2-------2------|2-------2--2----2---2---2------|
A|2-------2---2---2-------2------|0-------0--0----0---0---0------|
E|0-------0---0---0-------0------|-------------------------------|
just holding hands If I

e|0------ ------- 2------ 3------|5------ ------- ------- -------|
B|0------------------------------|-------------------------------|
G|0------------------------------|2------------------------------|
D|2---------------4-------5------|-------------------------------|
A|2------------------------------|-------------------------------|
E|0------------------------------|-------------------------------|



D Em F#m
e|2------ 2------ 0------ 0------|2------ 2------ 2---2-- 2------|
B|3-------3-------0-------0------|2-------2-------2---2---2------|
G|2-------2-------0-------0------|2-------2-------2---2---2------|
D|0-------0-------2-------2------|4-------4-------4---4---4------|
A|----------------2-------2------|4-------4-------4---4---4------|
E|----------------0-------0------|2-------2-------2---2---2------|
give my heart to

e|------- 2------ ------- 0------|------- 2------ ------- 2------|
B|----3-------3-------0-------0--|----2-------2-------2-------2--|
G|-------------------------------|-------------------------------|
D|0---------------2--------------|4---------------4--------------|
A|-------------------------------|-------------------------------|
E|-------------------------------|-------------------------------|


Em A
e|0------ 0------ 0------ 0------|0------ 0------ 0---0-- 0------|
B|0-------0-------0-------0------|2-------2-------2---2---2------|
G|0-------0-------0-------0------|2-------2-------2---2---2------|
D|2-------2-------2-------2------|2-------2-------2---2---2------|
A|2-------2-------2-------2------|0-------0-------0---0---0------|
E|0-------0-------0-------0------|-------------------------------|
you I must be sure from the

e|------- ------- ------- -------|------- ------- ------- -------|
B|-------------------------------|-------------------------------|
G|--------4---------------4------|--------2---------------2------|
D|----2-------2-------2-------2--|----2-------2-------2-------2--|
A|2---------------2--------------|0---------------0--------------|
E|-------------------------------|-------------------------------|



D Em F#m
e|2------ 2------ 0------ 0------|2---2-- 2------ 2------ 2------|
B|3-------3-------0-------0------|2---2---2-------2-------2------|
G|2-------2-------0-------0------|2---2---2-------2-------2------|
D|0-------0-------2-------2------|4---4---4-------4-------4------|
A|----------------2-------2------|4---4---4-------4-------4------|
E|----------------0-------0------|2---2---2-------2-------2------|
ve..............ry start that

e|------- 2------ ------- 0------|------- 2------ ------- 2------|
B|----3-------3-------0-------0--|----2-------2-------2-------2--|
G|-------------------------------|-------------------------------|
D|0---------------2--------------|4---------------4--------------|
A|-------------------------------|-------------------------------|
E|-------------------------------|-------------------------------|



Em A
e|0------ 0------ 0------ 0------|0------ 0------ 0------ 0------|
B|0-------0-------0-------0------|2-------2-------2-------2------|
G|0-------0-------0-------0------|2-------2-------2-------2------|
D|2-------2-------2-------2------|2-------2-------2-------2------|
A|2-------2-------2-------2------|0-------0-------0-------0------|
E|0-------0-------0-------0------|-------------------------------|
you will love me more than

e|------- ------- ------- -------|------- ------- ------- -------|
B|-------------------------------|-------------------------------|
G|--------4---------------4------|--------2---------------2------|
D|----2-------2-------2-------2--|----2-------2-------2-------2--|
A|2---------------2--------------|0---------------0--------------|
E|-------------------------------|-------------------------------|



D Gm A
e|2------ 2------ 2---2-- 2------|3---3-- 3------ 0---0-- 0------|
B|3-------3-------3---3---3------|3---3---3-------2---2---2------|
G|2-------2-------2---2---2------|3---3---3-------2---2---2------|
D|0-------0-------0---0---0------|5---5---5-------2---2---2------|
A|-------------------------------|5---5---5-------0---0---0------|
E|-------------------------------|3---3---3----------------------|
her If I

e|------- 2------ 2------ 2------|6------ ----6-- 5------ ----5--|
B|----3-------3-------3----------|----3---------------5----------|
G|-------------------------------|-------------------------------|
D|0------------------------------|-------------------------------|
A|-------------------------------|-------------------------------|
E|-------------------------------|-------------------------------|



D Em F#m
e|2------ 2------ 0------ 0------|2------ 2------ 2---2-- 2------|
B|3-------3-------0-------0------|2-------2-------2---2---2------|
G|2-------2-------0-------0------|2-------2-------2---2---2------|
D|0-------0-------2-------2------|4-------4-------4---4---4------|
A|----------------2-------2------|4-------4-------4---4---4------|
E|----------------0-------0------|2-------2-------2---2---2------|
trust in you oh

e|------- 2------ ------- 0------|------- 2------ ------- 2------|
B|----3-------3-------0-------0--|----2-------2-------2-------2--|
G|-------------------------------|-------------------------------|
D|0---------------2--------------|4---------------4--------------|
A|-------------------------------|-------------------------------|
E|-------------------------------|-------------------------------|



Em A
e|0------ 0------ 0------ 0------|0------ 0------ 0---0-- 0------|
B|0-------0-------0-------0------|2-------2-------2---2---2------|
G|0-------0-------0-------0------|2-------2-------2---2---2------|
D|2-------2-------2-------2------|2-------2-------2---2---2------|
A|2-------2-------2-------2------|0-------0-------0---0---0------|
E|0-------0-------0-------0------|-------------------------------|
please don't run and hide If I

e|------- ------- ------- -------|------- ------- ------- -------|
B|-------------------------------|-------------------------------|
G|--------4---------------4------|--------2---------------2------|
D|----2-------2-------2-------2--|----2-------2-------2-------2--|
A|2---------------2--------------|0---------------0--------------|
E|-------------------------------|-------------------------------|



D Em F#m
e|2------ 2------ 0------ 0------|2------ 2---2-- 2------ 2------|
B|3-------3-------0-------0------|2-------2---2---2-------2------|
G|2-------2-------0-------0------|2-------2---2---2-------2------|
D|0-------0-------2-------2------|4-------4---4---4-------4------|
A|----------------2-------2------|4-------4---4---4-------4------|
E|----------------0-------0------|2-------2---2---2-------2------|
love you too oh

e|------- 2------ ------- 0------|------- 2------ ------- 2------|
B|----3-------3-------0-------0--|----2-------2-------2-------2--|
G|-------------------------------|-------------------------------|
D|0---------------2--------------|4---------------4--------------|
A|-------------------------------|-------------------------------|
E|-------------------------------|-------------------------------|



Em A
e|0------ 0------ 0------ 0------|0------ 0------ 0---0-- 0------|
B|0-------0-------0-------0------|2-------2-------2---2---2------|
G|0-------0-------0-------0------|2-------2-------2---2---2------|
D|2-------2-------2-------2------|2-------2-------2---2---2------|
A|2-------2-------2-------2------|0-------0-------0---0---0------|
E|0-------0-------0-------0------|-------------------------------|
please don't hurt my pride like

e|------- ------- ------- -------|------- ------- ------- -------|
B|-------------------------------|-------------------------------|
G|--------4---------------4------|--------2---------------2------|
D|----2-------2-------2-------2--|----2-------2-------2-------2--|
A|2---------------2--------------|0---------------0--------------|
E|-------------------------------|-------------------------------|




D
e|2------ 2------ 2---2-- 2------|2------ 2------ 2---2-- 2------|
B|3-------3-------3---3---3------|3-------3-------3---3---3------|
G|2-------2-------2---2---2------|2-------2-------2---2---2------|
D|0-------0-------0---0---0------|0-------0-------0---0---0------|
A|-------------------------------|-------------------------------|
E|-------------------------------|-------------------------------|
her 'cause I couldn't stand the pain

e|------- ------- ------- -------|------- ------- ------- -------|
B|-------------------------------|-------------------------------|
G|--------2---------------2------|--------2---------------2------|
D|----0-------0-------0-------0--|----0-------0-------0-------0--|
A|0---------------0--------------|0---------------0--------------|
E|-------------------------------|-------------------------------|



G Gm
e|3------ 3---3-- 3---3-- 3------|3------ 3------ 3---3-- 3------|
B|3-------3---3---3---3---3------|3-------3-------3---3---3------|
G|4-------4---4---4---4---4------|3-------3-------3---3---3------|
D|5-------5---5---5---5---5------|5-------5-------5---5---5------|
A|5-------5---5---5---5---5------|5-------5-------5---5---5------|
E|3-------3---3---3---3---3------|3-------3-------3---3---3------|
and I would be

e|------- ------- ------- -------|------- ------- ------- -------|
B|-------------------------------|-------------------------------|
G|--------0---------------0------|-------------------------------|
D|----0-------0-------0----------|--------3---------------3------|
A|-------------------------------|----5-------5-------5----------|
E|3---------------3--------------|3---------------3--------------|



D
e|3------ 3---3-- 3---3-- 3------|2------ 2---2-- 2------ 2------|
B|3-------3---3---3---3---3------|3-------3---3---3-------3------|
G|3-------3---3---3---3---3------|2-------2---2---2-------2------|
D|5-------5---5---5---5---5------|0-------0---0---0-------0------|
A|5-------5---5---5---5---5------|-------------------------------|
E|3-------3---3---3---3---3------|-------------------------------|
sad If our new love was in

e|------- ------- ------- -------|------- 2------ 2------ -------|
B|-------------------------------|------------3------------------|
G|-------------------------------|----2--------------------------|
D|--------3---------------3------|0------------------------------|
A|----5-------5-------5-------5--|-------------------------------|
E|3---------------3--------------|-------------------------------|


A D Em
e|0------ 0---0-- 0---0-- 0------|2------ 2---2-- 0---0-- 0------|
B|2-------2---2---2---2---2------|3-------3---3---0---0---0------|
G|2-------2---2---2---2---2------|2-------2---2---0---0---0------|
D|2-------2---2---2---2---2------|0-------0---0---2---2---2------|
A|0-------0---0---0---0---0------|----------------2---2---2------|
E|-------------------------------|----------------0---0---0------|
vain So I hope you

e|------- ------- ------- -------|------- 2------ ------- 0------|
B|-------------------------------|----3-------3-------0-------0--|
G|-------------------------------|-------------------------------|
D|-------------------------------|0---------------2--------------|
A|-------------------------------|-------------------------------|
E|-------------------------------|-------------------------------|


F#m Em
e|2------ 2---2-- 2------ 2------|0------ 0---0-- 0---0-- 0------|
B|2-------2---2---2-------2------|0-------0---0---0---0---0------|
G|2-------2---2---2-------2------|0-------0---0---0---0---0------|
D|4-------4---4---4-------4------|2-------2---2---2---2---2------|
A|4-------4---4---4-------4------|2-------2---2---2---2---2------|
E|2-------2---2---2-------2------|0-------0---0---0---0---0------|
see that I would

e|------- 2------ ------- 2------|------- ------- ------- -------|
B|----2-------2-------2-------2--|-------------------------------|
G|-------------------------------|--------4---------------4------|
D|4---------------4--------------|----2-------2-------2-------2--|
A|-------------------------------|2---------------2--------------|
E|-------------------------------|-------------------------------|



A D Em
e|0------ 0------ 0------ 0------|2------ 2------ 0------ 0------|
B|2-------2-------2-------2------|3-------3-------0-------0------|
G|2-------2-------2-------2------|2-------2-------0-------0------|
D|2-------2-------2-------2------|0-------0-------2-------2------|
A|0-------0-------0-------0------|----------------2-------2------|
E|-------------------------------|----------------0-------0------|
love to love you and that

e|------- ------- ------- -------|------- 2------ ------- 0------|
B|-------------------------------|----3-------3-------0-------0--|
G|--------2---------------2------|-------------------------------|
D|----2-------2-------2-------2--|0---------------2--------------|
A|0---------------0--------------|-------------------------------|
E|-------------------------------|-------------------------------|



F#m Em
e|2------ 2---2-- 2---2-- 2------|0------ 0---0-- 0---0-- 0------|
B|2-------2---2---2---2---2------|0-------0---0---0---0---0------|
G|2-------2---2---2---2---2------|0-------0---0---0---0---0------|
D|4-------4---4---4---4---4------|2-------2---2---2---2---2------|
A|4-------4---4---4---4---4------|2-------2---2---2---2---2------|
E|2-------2---2---2---2---2------|0-------0---0---0---0---0------|
she will cry when

e|------- 2------ ------- 2------|------- ------- ------- -------|
B|----2-------2-------2-------2--|-------------------------------|
G|-------------------------------|--------4---------------4------|
D|4---------------4--------------|----2-------2-------2-------2--|
A|-------------------------------|2---------------2--------------|
E|-------------------------------|-------------------------------|


A D
e|0------ 0------ 0---0-- 0------|2------ 2---2-- 2---2-- 2------|
B|2-------2-------2---2---2------|3-------3---3---3---3---3------|
G|2-------2-------2---2---2------|2-------2---2---2---2---2------|
D|2-------2-------2---2---2------|0-------0---0---0---0---0------|
A|0-------0-------0---0---0------|-------------------------------|
E|-------------------------------|-------------------------------|
she learns we are two 'cause I

e|------- ------- ------- -------|------- ------- ------- -------|
B|-------------------------------|-------------------------------|
G|--------2---------------2------|--------2---------------2------|
D|----2-------2-------2-------2--|----0-------0-------0-------0--|
A|0---------------0--------------|0---------------0--------------|
E|-------------------------------|-------------------------------|



G
e|2------ 2---2-- 2---2-- 2------|3------ 3------ 3---3-- 3------|
B|3-------3---3---3---3---3------|3-------3-------3---3---3------|
G|2-------2---2---2---2---2------|4-------4-------4---4---4------|
D|0-------0---0---0---0---0------|5-------5-------5---5---5------|
A|-------------------------------|5-------5-------5---5---5------|
E|-------------------------------|3-------3-------3---3---3------|
couldn't stand the pain and I

e|------- ------- ------- -------|------- ------- ------- -------|
B|-------------------------------|-------------------------------|
G|--------2---------------2------|--------0---------------0------|
D|----0-------0-------0-------0--|----0-------0-------0-------0--|
A|0---------------0--------------|-------------------------------|
E|-------------------------------|3---------------3--------------|



Gm
e|3------ 3------ 3---3-- 3---3--|3------ 3------ 3---3-- 3------|
B|3-------3-------3---3---3---3--|3-------3------ 3---3---3------|
G|3-------3-------3---3---3---3--|3-------3-------3---3---3------|
D|5-------5-------5---5---5---5--|3-------3-------3---3---3------|
A|5-------5-------5---5---5---5--|5-------5-------5---5---5------|
E|3-------3-------3---3---3---3--|3-------3-------3---3---3------|
would be sad If our new

e|------- ------- ------- -------|------- ------- ------- -------|
B|-------------------------------|-------------------------------|
G|-------------------------------|-------------------------------|
D|--------3---------------3------|--------3---------------3------|
A|----5-------5-------5-------5--|----5-------5-------5-------5--|
E|3---------------3--------------|3---------------3--------------|



D A
e|2------ 2---2-- 2---2-- 2------|0---0-- 0---0-- 0------ -------|
B|3-------3---3---3---3---3------|2---2---2---2---2--------------|
G|2-------2---2---2---2---2------|2---2---2---2---2--------------|
D|0-------0---0---0---0---0------|2---2---2---2---2--------------|
A|-------------------------------|0---0---0---0---0--------------|
E|-------------------------------|-------------------------------|
love was in vain So I

e|------- 2------ 2------ -------|----0-- ----0-- ------- -------|
B|-----3------3------------------|--------2-------2--------------|
G|-------------------------------|-------------------------------|
D|0------------------------------|-------------------------------|
A|-------------------------------|0------------------------------|
E|-------------------------------|-------------------------------|



D Em F#m
e|2------ 2------ 0------ 0------|2------ 2------ 2---2-- 2------|
B|3-------3-------0-------0------|2-------2-------2---2---2------|
G|2-------2-------0-------0------|2-------2-------2---2---2------|
D|0-------0-------2-------2------|4-------4-------4---4---4------|
A|----------------2-------2------|4-------4-------4---4---4------|
E|----------------0-------0------|2-------2-------2---2---2------|
hope you see that

e|------- 2------ ------- 0------|------- 2------ ------- 2------|
B|----3-------3-------0-------0--|----2-------2-------2-------2--|
G|-------------------------------|-------------------------------|
D|0---------------2--------------|4---------------4--------------|
A|-------------------------------|-------------------------------|
E|-------------------------------|-------------------------------|



Em A
e|0------ 0------ 0------ 0------|0------ 0------ 0---0-- 0------|
B|0-------0-------0-------0------|2-------2-------2---2---2------|
G|0-------0-------0-------0------|2-------2-------2---2---2------|
D|2-------2-------2-------2------|2-------2-------2---2---2------|
A|2-------2-------2-------2------|0-------0-------0---0---0------|
E|0-------0-------0-------0------|-------------------------------|
I would love to love you

e|------- ------- ------- -------|------- ------- ------- -------|
B|-------------------------------|-------------------------------|
G|--------4---------------4------|--------2---------------2------|
D|----2-------2-------2-------2--|----2-------2-------2-------2--|
A|2---------------2--------------|0---------------0--------------|
E|-------------------------------|-------------------------------|



D Em F#m
e|2------ 2------ 0------ 0------|2------ 2------ 2---2-- 2------|
B|3-------3-------0-------0------|2-------2-------2---2---2------|
G|2-------2-------0-------0------|2-------2-------2---2---2------|
D|0-------0-------2-------2------|4-------4-------4---4---4------|
A|----------------2-------2------|4-------4-------4---4---4------|
E|----------------0-------0------|2-------2-------2---2---2------|
and that she will

e|------- 2------ ------- 0------|------- 2------ ------- 2------|
B|----3-------3-------0-------0--|----2-------2-------2-------2--|
G|-------------------------------|-------------------------------|
D|0---------------2--------------|4---------------4--------------|
A|-------------------------------|-------------------------------|
E|-------------------------------|-------------------------------|




Em A
e|0------ 0------ 0------ 0------|0------ 0------ 0---0-- 0------|
B|0-------0-------0-------0------|2-------2-------2---2---2------|
G|0-------0-------0-------0------|2-------2-------2---2---2------|
D|2-------2-------2-------2------|2-------2-------2---2---2------|
A|2-------2-------2-------2------|0-------0-------0---0---0------|
E|0-------0-------0-------0------|-------------------------------|
cry when she learns we are two

e|------- ------- ------- -------|------- ------- ------- -------|
B|-------------------------------|-------------------------------|
G|--------4---------------4------|--------2---------------2------|
D|----2-------2-------2-------2--|----2-------2-------2-------2--|
A|2---------------2--------------|0---------------0--------------|
E|-------------------------------|-------------------------------|



D Gm
e|2------ 2------ 2---2-- 2------|3------ 3---3-- 3---3-- 3------|
B|3-------3-------3---3---3------|3-------3---3---3---3---3------|
G|2-------2-------2---2---2------|3-------3---3---3---3---3------|
D|0-------0-------0---0---0------|5-------5---5---5---5---5------|
A|-------------------------------|5-------5---5---5---5---5------|
E|-------------------------------|3-------3---3---3---3---3------|
If I fell in love with you

e|------- 2------ ------- 5------|------- ------- ------- -------|
B|----3-------3-------3----------|-------------------------------|
G|-------------------------------|--------0---------------0------|
D|----------------------------0--|----0-------0-------0----------|
A|0---------------0--------------|-------------------------------|
E|-------------------------------|3---------------3--------------|



D Gm
e|2------ 2------ 2------ -------|3------ 3------ 3---3-- 3------|
B|3-------3-------3--------------|3-------3-------3---3---3------|
G|2-------2-------2--------------|3-------3-------3---3---3------|
D|0-------0-------0--------------|5-------5-------5---5---5------|
A|-------------------------------|5-------5-------5---5---5------|
E|-------------------------------|3-------3-------3---3---3------|

e|------- 2------ 2------ -------|------- ------- 10----- 12-----|
B|------------3-----------10-----|11------13---------------------|
G|----2--------------------------|-----------------7-------9-----|
D|0------------------------7-----|-8------10---------------------|
A|-------------------------------|-------------------------------|
E|-------------------------------|-------------------------------|




(.
D
e|2------ ------- ------- -------|------- ------- ------- -------|
B|3------------------------------|-------------------------------|
G|2------------------------------|-------------------------------|
D|0------------------------------|-------------------------------|
A|-------------------------------|-------------------------------|
E|-------------------------------|-------------------------------|


e|14----- ------- ------- -------|------- ------- ------- -------|
B|-------------------------------|-------------------------------|
G|11-----------------------------|-------------------------------|
D|-------------------------------|-------------------------------|
A|-------------------------------|-------------------------------|
E|-------------------------------|-------------------------------|








B Bend
R Release
/ slide up
\ slide down
H hammer-on
P pull-off
~ vibrato
+ harmonic
x Mute note
. - play note like a dot in standard notation
^ - ties two notes together
(. Pause

pjvill

Submitted by pjvill at Sat 10 Dec, 2005 5:00 am

Author: ?
Composer: ?
Publisher: ?
Language: English

Reactions

CommonCrawl [Bot]

Follow Muzikum