The Beatles

The Beatles
I Will Ver 3 (Guitar tab)

-----------------------------------------------------------------
THE BEATLES - I WILL (Lennon/McCartney) From the White Album.
Released on November the 22nd of 1968.

-----------------------------------------------------------------

Tabbed by:PJVillanueva







F Dm Gm7 C
Who knows how long I've loved you?

F Dm Am
You know I love you still

F7 Bb C Dm F
Will I wait a lonely lifetime?

Bb C F * Dm Gm7 C (* Solo guitar 1)
If you want me to, I will.


F Dm Gm7 C
For if I ever saw you

F Dm Am
I didn't catch your name

F7 Bb C Dm F
But it never really mattered

Bb C F * F7 (* solo guitar 2)
I will always feel the same

Bb Am Dm
Love you forever and forever

Gm7 C F F7
Love you with all of my heart.

Bb Am Dm
Love you whenever we're together

G C
Love you when we're apart.


F Dm Gm7 C
And when at last I find you,

F Dm Am
Your song will fill the air

F7 Bb C Dm * Bbm F (* solo guitar 3)
Sing it loud so I can hear you,

Bb C Dm Bbm F
Make it easy to be near you,

Bb C Dm Bbm F
For the things you do endear you to me

Bb C Db
Oh you know I will.

F F7
I will

Bb A Dm
Mmmmmmmmmmmmm mmmmmmmm,
Gm7 C Fmaj7
Da da da da da da da.





Chords:

F 133211
Dm x57765
Gm7 353363
C 332010
Am x02210
F7 131241
Bb x13331
G 355433
Bbm x13321
Db x46664
Fmaj7 1x221x






* Second guitar 1



e|---1--- ------- 1------ -------|---1--- ------- 1------ -------|
B|----------3-----------3---1----|----------3-----------3---1----|
G|------------2---------------1H2|------------2---------------1H2|
D|-------------------------------|-------------------------------|
A|-------------------------------|-------------------------------|
E|-------------------------------|-------------------------------|



e|------- ------- ------- -------|
B|-------------------------------|
G|-------------------------------|
D|3------------------------------|
A|-------------------------------|
E|-------------------------------|




* Second guitar 2


e|---1--- ------- ------- -------|------- ------- ------- -------|
B|----------1-----4----3----1----|-------------------------------|
G|------------2---------------1H2|3---------------2--------------|
D|-------------------------------|-------------------------------|
A|-------------------------------|-------------------------------|
E|-------------------------------|-------------------------------|



e|------- ------- 0------ 1------|------- ------- ------- -------|
B|3------------------------------|----------------2--------------|
G|-------------------------------|3------------------------------|
D|-------------------------------|-------------------------------|
A|-------------------------------|-------------------------------|
E|-------------------------------|-------------------------------|



e|---1--- ------- ------- -------|------- ------- ------- -------|
B|----------1-----4----3----1----|-------------------------------|
G|------------2---------------1H2|-3--------------2--------------|
D|-------------------------------|-------------------------------|
A|-------------------------------|-------------------------------|
E|-------------------------------|-------------------------------|



e|------- ------- 0------ 1------|------- ------- 3------ -------|
B|3------------------------------|-------------------------------|
G|-------------------------------|4-----------------------/--9---|
D|-------------------------------|-------------------------------|
A|-------------------------------|-------------------------------|
E|-------------------------------|-------------------------------|


¨¨¨¨¨¨
e|8-\-6-- 6-\-5-- 5-\-3-- 3-\-1--|-------------------------------|
B|---------------------------------------------------------------|
G|--\-7---7-\-5---5-\-3---3-\-2--|-------------------------------|
D|-------------------------------|-------------------------------|
A|-------------------------------|-------------------------------|
E|-------------------------------|-------------------------------|






* Second guitar 3


e|------- ------- ------- -------|------- ------- ------- -------|
B|--------3-------2--------------|-------------------------------|
G|-------------------------------|-------------------------------|
D|--------4-------3--------------|-------------------------------|
A|-------------------------------|-------------------------------|
E|-------------------------------|-------------------------------|



e|------- ------- ------- -------|------- ------- ------- -------|
B|--------3-------2--------------|-------------------------------|
G|-------------------------------|-------------------------------|
D|--------4-------3--------------|-------------------------------|
A|-------------------------------|-------------------------------|
E|-------------------------------|-------------------------------|



e|------- ------- ------- -------|------- ------- ------- -------|
B|--------3-------2--------------|-------------------------------|
G|------------------------3------|3------------------------------|
D|--------4-------3-------2------|1------------------------------|
A|-------------------------------|-------------------------------|
E|-------------------------------|-------------------------------|



e|------- ------- ------- -------|------- ------- ------- -------|
B|---6------4-----6-----4--------|---6-----4------6-----4--------|
G|------------6-------------6----|--------------------------6----|
D|----------------------------6--|-----------6----------------6--|
A|-------------------------------|-------------------------------|
E|-------------------------------|-------------------------------|



e|---1--- ------- 1------ -------|---1--- ------- 1------ -------|
B|-----------3----------3---1----|-----------3----------4---3--1-|
G|-------------2--------------1H2|-------------2-----------------|
D|-------------------------------|-------------------------------|
A|-------------------------------|-------------------------------|
E|-------------------------------|-------------------------------|



e|------- ------- ------- -------|------- 0------ ---1--- -------|
B|-------------------------------|3------------------------------|
G|3---------------2--------------|-------------------------------|
D|-------------------------------|-------------------------------|
A|-------------------------------|-------------------------------|
E|-------------------------------|-------------------------------|



¨¨¨¨¨¨
e|------- ------- ------- -------|5------ ------- ------- -------|
B|----------------1--------------|5------------------------------|
G|3------------------------------|5------------------------------|
D|-------------------------------|3------------------------------|
A|-------------------------------|3------------------------------|
E|-------------------------------|-------------------------------|








B Bend
R Release
/ Slide up
\ Slide down
H Hammer-on
P Pull-off
~ Vibrato
+ Harmonic
x Mute note
. Play note like a dot in standard notation
^ Ties two notes together
(. Pause

pjvill

Submitted by pjvill at Sat 10 Dec, 2005 4:59 am

Author: ?
Composer: ?
Publisher: ?
Language: English

Reactions

CommonCrawl [Bot]

Follow Muzikum