The Beatles

The Beatles
I Want To Hold Your Hand Ver 2 (Guitar tab)

--------------------------------------------------------------------------

THE BEATLES - I WANT TO HOLD YOUR HAND (Lennon/McCartney) Released as a
single on 29th November 1963 with THIS BOY as the B side.


--------------------------------------------------------------------------

Tabbed by:PJVillanueva






Oh yeah, I'll tell you something,
I think you'll understand.
When I say that something
I want to hold your hand,
I want to hold your hand,
I want to hold your hand.

Oh please, say to me
You'll let me be your man
And please, say to me
You'll let me hold your hand.
Now let me hold your hand,
I want to hold your hand.

And when I touch you I feel happy inside.
It's such a feeling that my love
I can't hide, I can't hide, I can't hide.

Yeah, you've got that something,
I think you'll understand.
When I say that something
I want to hold your hand,
I want to hold your hand,
I want to hold your hand.

And when I touch you I feel happy inside.
It's such a feeling that my love
I can't hide, I can't hide, I can't hide.

Yeh, you've got that something,
I think you'll understand.
When I feel that something
I want to hold your hand,
I want to hold your hand,
I want to hold your hand.




C
e|------- ------- ------- -------|------- ------- ------- -------|
B|-------------------------------|-------------------------------|
G|-------------------------------|------------------------5---5--|
D|-------------------------------|------------------------5---5--|
A|-------------------------------|------------------------3---3--|
E|-------------------------------|-------------------------------|

e|------- ------- ------- -------|------- ------- ------- -------|
B|-------------------------------|-------------------------------|
G|-------------------------------|----------------------------0--|
D|-------------------------------|------------------------2------|
A|-------------------------------|-------------------------------|
E|-------------------------------|-------------------------------|


D C D C
e|------- ------- ------- -------|------- ------- ------- -------|
B|-------------------------------|-------------------------------|
G|7-------7---7---7---7---5---5--|7-------7---7---7---7---5---5--|
D|7-------7---7---7---7---5---5--|7-------7---7---7---7---5---5--|
A|5-------5---5---5---5---3---3--|5-------5---5---5---5---3---3--|
E|-------------------------------|-------------------------------|

e|------- ------- ------- -------|------- ------- ------- -------|
B|-------------------------------|------------3------------------|
G|------------2---------------0--|------------2---------------0--|
D|0-----------------------2------|0-----------------------2------|
A|-------------------------------|-------------------------------|
E|-------------------------------|-------------------------------|


D
e|---------- ------- ------- -------|------- ------- ------- -------|
B|----------------------------------|-------------------------------|
G|----------------------------------|-------------------------------|
D|7------7---9---7---7---7---9---7--|7---7---9---7---7---7---9------|
A|5------5---5---5---5---5---5---5--|5---5---5---5---5---5---5------|
E|----------------------------------|-------------------------------|
Oh yeah,
e|---------- ------- ------- -------|------- ------- ------- -------|
B|----------------------------------|1------------------------------|
G|--------2------2------------------|2-----------------------5B7R5--|
D|0---------------------------------|-------------------------------|
A|----------------------------------|-------------------------------|
E|----------------------------------|-------------------------------|


G D
e|------- ------- ------- -------|------- ------- ------- -------|
B|-------------------------------|-------------------------------|
G|-------------------------------|-------------------------------|
D|5-------5-------5---5---5------|7---7---9---7---7---7---9---7--|
A|5-------5-------5---5---5---0--|5---5---5---5---5---5---5---5--|
E|3-------3-------3---3---3------|-------------------------------|
I'll tell you something
e|------- ------- ------- -------|------- ------- ------- -------|
B|--------3---3------------------|----------------------------7-\|
G|--------4---4------------------|-------------------------------|
D|--------5---5------------------|-------------------------------|
A|-------------------------------|-------------------------------|
E|-------------------------------|-------------------------------|



Em B
e|------- ------- ------- -------|------- ------- ------- -------|
B|-------------------------------|-------------------------------|
G|-------------------------------|-------------------------------|
D|2-------2---2---2---2---2------|9---9---9---9---9---9---9------|
A|2-------2---2---2---2---2------|9---9---9---9---9---9---9------|
E|0-------0---0---0---0---0------|7---7---7---7---7---7---0------|
I think you'll un..der.....stand When
e|------- ------- ------- -------|------- ------- ------- -------|
B|5-----------------------5------|-------------------------------|
G|----------------------------4--|-------------------------------|
D|-------------------------------|-------------------------------|
A|-------------------------------|-------------------------------|
E|-------------------------------|-------------------------------|



G D
e|------- ------- ------- -------|------- ------- ------- -------|
B|-------------------------------|-------------------------------|
G|-------------------------------|-------------------------------|
D|-------------------------------|7---7---9---7---7---7---9---9--|
A|5---5---7---5---5---5---5------|5---5---5---5---5---5---5---5--|
E|3---3---3---3---3---3---3------|-------------------------------|
I say that something
e|------- ------- ------- -------|------- ------- ------- -------|
B|3-----------3------------------|----------------------------7-\|
G|4-----------4------------------|7------------------------------|
D|5-----------5------------------|7------------------------------|
A|-------------------------------|5------------------------------|
E|-------------------------------|-------------------------------|



Em B
e|------- ------- ------- -------|------- ------- ------- -------|
B|-------------------------------|-------------------------------|
G|-------------------------------|-------------------------------|
D|2-------2---------------2------|------------------------9---9--|
A|2-------2---------------2------|------------------------9---9--|
E|0-------0---------------0------|------------------------7---7--|
I wanna hold your hand
e|------- ------- ------- -------|------- ------- ------- -------|
B|5------------------------------|--------0----------------------|
G|-------------------------------|--------2-B-4-----R-2---0------|
D|-------------------------------|-------------------------------|
A|-------------------------------|-------------------------------|
E|-------------------------------|-------------------------------|



C D G Em
e|0------ 0------ 2------ 2------|3------ 3------ 0------ 0------|
B|1-------1-------3-------3------|3-------3-------0-------0------|
G|0-------0-------2-------2------|0-------0-------0-------0------|
D|2-------2-------0-------0------|0-------0-------2-------2------|
A|3-------3----------------------|2-------2-------2-------2------|
E|-------------------------------|3-------3-------0-------0------|
I wanna hold your hand
e|------- ------- ------- -------|------- ------- ------- -------|
B|-------------------------------|-------------------------------|
G|-------------------------------|----------------------------0--|
D|2------------------------------|-------------------------------|
A|-------------------------------|------------------------2------|
E|-------------------------------|-------------------------------|



C D7 G
e|0------ 0------ 2------ 2------|------- ------- ------- -------|
B|1-------1-------1-------1------|-------------------------------|
G|0-------0-------2-------2------|-------------------------------|
D|2-------2-------0-------0------|-------------------------------|
A|3-------3----------------------|5-------7---5---5---5---7---5--|
E|-------------------------------|3-------3---3---3---3---3---3--|
I wanna hold your hand Oh
e|------- ------- ------- -----/-|-7----- -7----- ----7-- ----7--|
B|----------------1------------/-|-8-------8----------8-------8--|
G|----------------2------------/-|-7-------7----------7-------7--|
D|----------------0------------/-|-9-------9----------9-------9--|
A|3------------------------------|-------------------------------|
E|-------------------------------|-------------------------------|



D
e|------- ------- ------- -------|------- ------- ------- -------|
B|-------------------------------|-------------------------------|
G|-------------------------------|-------------------------------|
D|5---5---5---5---5---5---5---5--|7---7---9---7---7---7---9---9--|
A|5---5---5---5---5---5---5---5--|5---5---5---5---5---5---5---5--|
E|3---3---3---3---3---3---3------|-------------------------------|
please, say to me
e|------- ----7-- ------- 7------|------- ----5-- ------- -------|
B|------------8-----------8------|------------7---------------7-\|
G|------------7-----------7------|------------7------------------|
D|------------9-----------9------|------------7------------------|
A|-------------------------------|------------5------------------|
E|-------------------------------|-------------------------------|

e|------- ------- ------- -------|------- ------- ------- -------|
B|-------------------------------|-------------------------------|
G|-------------------------------|-------------------------------|
D|-------------------------------|-------------------------------|
A|-------------------------------|----------------5---4---5---6--|
E|-------------------------------|-------------------------------|




Em B
e|------- ------- ------- -------|------- ------- ------- -------|
B|-------------------------------|-------------------------------|
G|-------------------------------|-------------------------------|
D|2-------2-------2---2---2---2--|9---9---9---9---9---9---9------|
A|2-------2-------2---2---2---2--|9---9---9---9---9---9---9------|
E|0-------0-------0---0---0---0--|7---7---7---7---7---7---0------|
you'll let me be your man And
e|------- ------- ------- -------|------- ------- ------- -------|
B|5------------------------------|-------------------------------|
G|----------------------------4--|-------------------------------|
D|-------------------------------|-------------------------------|
A|-------------------------------|-------------------------------|
E|-------------------------------|-------------------------------|

e|------- ------- ------- -------|------- ------- ------- -------|
B|-------------------------------|-------------------------------|
G|-------------------------------|-------------------------------|
D|-------------------------------|-------------------------------|
A|7------------------------------|-------------------------------|
E|-------------------------------|-------------------------------|




G D
e|------- ------- ------- -------|------- ------- ------- -------|
B|-------------------------------|-------------------------------|
G|-------------------------------|-------------------------------|
D|-------------------------------|7---7---9---7---7---7---9---9--|
A|5---5---7---5---5---5---5---0--|5---5---5---5---5---5---5---5--|
E|3---3---3---3---3---3---3------|-------------------------------|
please, say to me
e|------- 7------ ----7-- -------|------- 5------ ------- -------|
B|--------8-----------8----------|--------7-------------------7-\|
G|--------7-----------7----------|--------7----------------------|
D|--------9-----------9----------|--------7----------------------|
A|-------------------------------|--------5----------------------|
E|-------------------------------|-------------------------------|



Em B
e|------- ------- ------- -------|------- ------- ------- -------|
B|-------------------------------|-------------------------------|
G|-------------------------------|-------------------------------|
D|2---2---2---2---2---2---2------|9-------9----------------------|
A|2---2---2---2---2---2---2------|9-------9----------------------|
E|0---0---0---0---0---0---0------|7-------7----------------------|
You'll let me hold your hand
e|------- ------- ------- -------|------- ------- ------- -------|
B|5------------------------------|0------------------------------|
G|-------------------------------|2B4---------------------0------|
D|-------------------------------|-------------------------------|
A|-------------------------------|-------------------------------|
E|-------------------------------|-------------------------------|




C D G Em
e|0------ 0------ 2------ 2------|3------ 3------ 0------ 0------|
B|1-------1-------3-------3------|3-------3-------0-------0------|
G|0-------0-------2-------2------|0-------0-------0-------0------|
D|2-------2-------0-------0------|0-------0-------2-------2---0--|
A|3-------3----------------------|2-------2-------2-------2---0--|
E|------------------------0------|3-------3-------0-------0------|
I wanna hold your hand
e|------- ------- ------- -------|------- ------- ------- -------|
B|-------------------------------|3---------------0--------------|
G|-------------------------------|4---------------0--------------|
D|2---------------0--------------|5---------------2--------------|
A|-------------------------------|-------------------------------|
E|-------------------------------|-------------------------------|



C D7 G
e|0------ 0------ 2------ 2------|------- ------- ------- -------|
B|1-------1-------1-------1------|-------------------------------|
G|0-------0-------2-------2------|-------------------------------|
D|2-------2-------0-------0------|-------------------------------|
A|3-------3----------------------|5---5---7---5---5---5---5------|
E|----------------0-------0------|3---3---3---3---3---3---3------|
I wanna hold your hand
e|------- ------- ------- -----/-|7------ 7------ ----7-- ----7--|
B|-----------------------------/-|8-------8-----------8-------8--|
G|5-------5-------7------------/-|7-------7-----------7-------7--|
D|5-------5-------7------------/-|9-------9-----------9-------9--|
A|3-------3-------5--------------|-------------------------------|
E|-------------------------------|-------------------------------|



Dm G
e|------- ------- ------- -------|------- ------- ------- -------|
B|-------------------------------|-------------------------------|
G|2-----------------------2------|4------------------------------|
D|3-----------------------3------|5------------------------------|
A|5-----------------------5------|5------------------------------|
E|-------------------------------|3------------------------------|
And when I touch you I feel
e|------- ------- ------- -------|------- ------- ------- 3------|
B|------------------------6------|--------------------4----------|
G|--------------------7----------|------------5------------------|
D|------------7------------------|--------5---------------5------|
A|-------------------------------|-------------------------------|
E|-------------------------------|3---------------3--------------|



C Am
e|------- ------- ------- -------|------- ------- ------- -------|
B|-------------------------------|-------------------------------|
G|0-------------------0----------|2-----------2---2--------------|
D|2-------------------2----------|2-----------2---2--------------|
A|3-------------------3----------|0-----------0---0--------------|
E|-------------------------------|-------------------------------|
happy inside
e|------- ------- ------- 0------|------- ------- ------- 0------|
B|--------------------1----------|--------------------1----------|
G|------------0------------------|------------2------------------|
D|--------2---------------2------|--------2---------------2------|
A|3---------------3--------------|0---------------0--------------|
E|-------------------------------|-------------------------------|



Dm G
e|------- ------- ------- -------|------- ------- ------- -------|
B|-------------------------------|-------------------------------|
G|7-----------7---7--------------|-------------------------------|
D|7-----------7---7--------------|5-----------5---5--------------|
A|5-----------5---5--------------|5-----------5---5--------------|
E|-------------------------------|3-----------3---3--------------|
It's such a feeling that my
e|------- ------- ------- 5------|------- ------- ------- 3------|
B|--------------------6----------|--------------------4----------|
G|------------7------------------|------------5------------------|
D|--------7----------------------|--------5---------------5------|
A|-------------------------------|-------------------------------|
E|-------------------------------|3---------------3--------------|



C D C D
e|------- ------- ------- -------|------- ------- ------- -------|
B|-------------------------------|-------------------------------|
G|5-------5-------5---5---5---7--|--------7---7---7---5---5---7--|
D|5-------5-------5---5---5---7--|--------7---7---7---5---5---7--|
A|3-------3-------3---7---3---5--|--------5---5---5---3---7---5--|
E|-------------------------------|-------------------------------|
love I can't hide I can't hide
e|------- ------- ------- 0---2--|------- 2------ ------- ----2--|
B|--------------------1-------3--|--------3-------------------3--|
G|------------0---------------2--|--------2-------------------2--|
D|--------2---------------2---0--|--------0-------0-------2---0--|
A|3---------------3--------------|--------------------3----------|
E|-------------------------------|-------------------------------|




C D
e|------- ------- ------- -------|------- ------- ------- -------|
B|-------------------------------|-------------------------------|
G|--------7---7---7---5---5---7--|-------------------------------|
D|--------7---7---7---5---5---7--|----7---9---7---7---7---9---7--|
A|--------5---5---5---3---7---5--|----5---5---5---5---5---5---5--|
E|-------------------------------|-------------------------------|
I can't hide
e|------- 2------ ------- -------|------- ------- ------- -------|
B|--------3----------------------|-------------------------------|
G|--------2-------------------2--|-------------------------------|
D|--------0---------------2---0--|-------------------------------|
A|--------------------3----------|-------------------------------|
E|-------------------------------|-------------------------------|




e|------- ------- ------- -------|
B|-------------------------------|
G|7---7---7---7---7---7---7---7--|
D|7---7---7---7---7---7---7---7--|
A|5---5---5---5---5---5---5---5--|
E|-------------------------------|
Yeah,
e|------- ------- ------- -------|
B|-------------------------------|
G|5-B-7-R-5-B-7---5B7-R-5-3------|
D|-------------------------------|
A|-------------------------------|
E|-------------------------------|



G D
e|------- ------- ------- -------|------- ------- ------- -------|
B|-------------------------------|-------------------------------|
G|-------------------------------|-------------------------------|
D|5-------5---5---5---5---5------|7---7---7-------7---7---9---9--|
A|5-------5---5---5---5---5------|5---5---5-------5---5---5---5--|
E|3-------3---3---3---3---3------|-------------------------------|
You got that something
e|------- ----7-- ------- 7------|------- ------- ------- -------|
B|------------8-----------8------|----------------------------7-\|
G|------------7-----------7------|7------------------------------|
D|------------9-----------9------|7------------------------------|
A|-------------------------------|5------------------------------|
E|-------------------------------|-------------------------------|

e|------- ------- ------- -------|------- ------- ------- -------|
B|-------------------------------|-------------------------------|
G|-------------------------------|-------------------------------|
D|-------------------------------|-------------------------------|
A|-------------------------------|----------------5---4---5---6--|
E|-------------------------------|-------------------------------|





Em B
e|------- ------- ------- -------|------- ------- ------- -------|
B|-------------------------------|-------------------------------|
G|-------------------------------|-------------------------------|
D|2-------2---2---2---2---2---2--|9---9---9---9---9---9---9---9--|
A|2-------2---2---2---2---2---2--|9---9---9---9---9---9---9---9--|
E|0-------0---0---0---0---0---0--|7---7---7---7---7---7---0---0--|
I think you'll un...der.....stand. When
e|------- ------- ------- -------|------- ------- ------- -------|
B|5---------------------------4--|-------------------------------|
G|-------------------------------|4------------------------------|
D|-------------------------------|-------------------------------|
A|-------------------------------|-------------------------------|
E|-------------------------------|-------------------------------|

e|------- ------- ------- -------|------- ------- ------- -------|
B|-------------------------------|-------------------------------|
G|-------------------------------|-------------------------------|
D|-------------------------------|-------------------------------|
A|7------------------------------|-------------------------------|
E|-------------------------------|-------------------------------|




G D
e|------- ------- ------- -------|------- ------- ------- -------|
B|-------------------------------|-------------------------------|
G|-------------------------------|-------------------------------|
D|-------------------------------|7---7---7-------7---7---9---9--|
A|5---5---7---5---5---5---5------|5---5---5-------5---5---5---5--|
E|3---3---3---3---3---3---3------|-------------------------------|
I say that something
e/7------ 7------ ----7-- -------|------- ------- ------- -------|
B/8-------8-----------8----------|----------------------------7-\|
G/7-------7-----------7----------|7-------7----------------------|
D/9-------9-----------9----------|7-------7----------------------|
A|-------------------------------|5-------5----------------------|
E|-------------------------------|-------------------------------|



Em B
e|------- ------- ------- -------|------- ------- ------- -------|
B|-------------------------------|-------------------------------|
G|-------------------------------|-------------------------------|
D|2---2---2---2---2-------2------|9-------9---9---9---9---9------|
A|2---2---2---2---2-------2------|9-------9---9---9---9---9------|
E|0---0---0---0---0-------0------|7-------7---7---7---7---0------|
I wanna hold you hand
e|------- ------- ------- -------|------- ------- ------- -------|
B|5------------------------------|0---------------0--------------|
G|-------------------------------|2B4-------------2B4-R-2-0------|
D|-------------------------------|-------------------------------|
A|-------------------------------|-------------------------------|
E|-------------------------------|-------------------------------|



C D G Em
e|0------ 0------ 2------ 2------|3------ 3------ 0------ 0------|
B|1-------1-------3-------3------|3-------3-------0-------0------|
G|0-------0-------2-------2------|0-------0-------0-------0------|
D|2-------2-------0-------0------|0-------0-------2-------2---0--|
A|3-------3----------------------|2-------2-------2-------2---0--|
E|------------------------0------|3-------3-------0-------0------|
I wanna hold your hand
e|------- ------- ------- -------|------- ------- ------- -------|
B|-------------------------------|-------------------------------|
G|-------------------------------|-------------------------------|
D|2---------------0--------------|-------------------------------|
A|-------------------------------|-------------------------------|
E|-------------------------------|-------------------------------|



C D G
e|0------ 0------ 2------ 2------|------- ------- ------- -------|
B|1-------1-------1-------1------|-------------------------------|
G|0-------0-------2-------2------|-------------------------------|
D|2-------2-------0-------0------|5---5---5---5---5---5---5------|
A|3-------3----------------------|5---5---5---5---5---5---5------|
E|----------------0-------0------|3---3---3---3---3---3---3------|
I wanna hold your hand
e|------- ------- ------- ------/|7------ 7------ ----7-- ----7--|
B|------------------------------/|8-------8-----------8-------8--|
G|5---------------7-------------/|7-------7-----------7-------7--|
D|5---------------7-------------/|9-------9-----------9-------9--|
A|3---------------5--------------|-------------------------------|
E|-------------------------------|-------------------------------|



Dm G
e|------- ------- ------- -------|------- ------- ------- -------|
B|-------------------------------|-------------------------------|
G|2-----------2---2--------------|-------------------------------|
D|3-----------3---3--------------|5-----------5---5--------------|
A|5-----------5---5--------------|5-----------5---5--------------|
E|-------------------------------|3-----------3---3--------------|
And when I touch you I feel
e|------- ------- ------- 5------|------- ------- ------- 3------|
B|--------------------6----------|--------------------4----------|
G|------------7------------------|------------5------------------|
D|--------7---------------7------|--------5---------------5------|
A|5---------------5--------------|-------------------------------|
E|-------------------------------|3---------------3--------------|



C Am
e|------- ------- ------- -------|------- ------- ------- -------|
B|-------------------------------|-------------------------------|
G|0-----------0-------0----------|2-----------2---2--------------|
D|2-----------2-------2----------|2-----------2---2--------------|
A|3-----------3-------3----------|0-----------0---0--------------|
E|-------------------------------|-------------------------------|
happy inside
e|------- ------- ------- 1------|------- ------- ------- 1------|
B|--------------------1----------|--------------------1----------|
G|------------0------------------|------------2------------------|
D|--------2---------------2------|--------2---------------2------|
A|3---------------3--------------|0---------------0--------------|
E|-------------------------------|-------------------------------|



Dm G
e|------- ------- ------- -------|------- ------- ------- -------|
B|-------------------------------|-------------------------------|
G|2-----------2---2--------------|-------------------------------|
D|3-----------3---3--------------|5-----------5---5--------------|
A|5-----------5---5--------------|5-----------5---5--------------|
E|-------------------------------|3-----------3---3--------------|
It's such a feeling that my
e|------- ------- ------- 5------|------- ------- ------- -------|
B|--------------------6----------|--------------------4----------|
G|------------7------------------|------------5------------------|
D|--------7---------------7------|--------5---------------5------|
A|5---------------5--------------|-------------------------------|
E|-------------------------------|3---------------3--------------|



C D C D
e|------- ------- ------- -------|------- ------- ------- -------|
B|-------------------------------|-------------------------------|
G|5-----------5---5---5---5---7--|--------7---7---7---5---5---7--|
D|5-----------5---5---5---5---7--|--------7---7---7---5---5---7--|
A|3-----------3---3---3---7---5--|--------5---5---5---3---7---5--|
E|-------------------------------|-------------------------------|
love I can't hide I can't hide
e|------- ------- ------- ----2--|------- 2------ 2------ ----2--|
B|--------------------1-------3--|--------3-------3-----------3--|
G|------------0---------------2--|--------2-------2-----------2--|
D|--------2---------------2---0--|--------0-------0-------2---0--|
A|3---------------3--------------|--------------------3----------|
E|-------------------------------|-------------------------------|





e|------- ------- ------- -------|------- ------- ------- -------|
B|-------------------------------|-------------------------------|
G|----7---7---7---7---5---5---7--|----7---7---7---7---7---7---7--|
D|----7---7---7---7---5---5---7--|----7---7---7---7---7---7---7--|
A|----5---5---5---5---3---0---5--|----5---5---5---5---5---5---5--|
E|-------------------------------|-------------------------------|
I can't hide
e|------- 2------ 2------ -------|------- ------- ------- -------|
B|--------3-------3--------------|-------------------------------|
G|--------2-------2-------0---2--|-------------------------------|
D|--------0-------0-------2---0--|-------------------------------|
A|--------------------3---0------|-------------------------------|
E|-------------------------------|-------------------------------|




e|------- ------- ------- -------|
B|-------------------------------|
G|7---7---7---7---7---7---7---7--|
D|7---7---7---7---7---7---7---7--|
A|5---5---5---5---5---5---5---5--|
E|-------------------------------|

e|------- ------- ------- -------|
B|-------------------------------|
G|5-B-7---5-B-7---5B7-R-5-3------|
D|-------------------------------|
A|-------------------------------|
E|-------------------------------|




G D
e|------- ------- ------- -------|------- ------- ------- -------|
B|-------------------------------|-------------------------------|
G|-------------------------------|-------------------------------|
D|5-------5---5---5---5---5------|7---7---9---7---7---7---9---9--|
A|5-------5---5---5---5---5------|5---5---5---5---5---5---5---5--|
E|3-------3---3---3---3---3------|-------------------------------|
You got that something
e|------- ----7-- ------- 7------|------- ------- ------- -------|
B|------------8-----------8------|----------------------------7-\|
G|------------7-----------7------|-------------------------------|
D|------------9-----------9------|-------------------------------|
A|-------------------------------|-------------------------------|
E|-------------------------------|-------------------------------|

e|------- ------- ------- -------|------- ------- ------- -------|
B|-------------------------------|-------------------------------|
G|-------------------------------|-------------------------------|
D|-------------------------------|-------------------------------|
A|-------------------------------|----------------5---4---5---6--|
E|-------------------------------|-------------------------------|





Em B
e|------- ------- ------- -------|------- ------- ------- -------|
B|-------------------------------|-------------------------------|
G|-------------------------------|-------------------------------|
D|2-------2---2---2---2---2---2--|9---9---9---9---9---9---9---9--|
A|2-------2---2---2---2---2---2--|9---9---9---9---9---9---9---9--|
E|0-------0---0---0---0---0---0--|7---7---7---7---7---7---0---0--|
I think you'll un...der.....stand. When
e|------- ------- ------- -------|------- ------- ------- -------|
B|5------------------------------|-------------------------------|
G|----------------------------4--|-------------------------------|
D|-------------------------------|-------------------------------|
A|-------------------------------|-------------------------------|
E|-------------------------------|-------------------------------|

e|------- ------- ------- -------|------- ------- ------- -------|
B|-------------------------------|-------------------------------|
G|-------------------------------|-------------------------------|
D|-------------------------------|-------------------------------|
A|7------------------------------|-------------------------------|
E|-------------------------------|-------------------------------|




G D
e|------- ------- ------- -------|------- ------- ------- -------|
B|-------------------------------|-------------------------------|
G|-------------------------------|-------------------------------|
D|-------------------------------|7---7---9---7---7---7---9---9--|
A|5---5---7---5---5---5---5------|5---5---5---5---5---5---5---5--|
E|3---3---3---3---3---3---3------|-------------------------------|
I say that something
e/7------ 7------ ----7-- -------|------- ------- ------- -------|
B/8-------8-----------8----------|----------------------------7-\|
G/7-------7-----------7----------|7-------7----------------------|
D/9-------9-----------9----------|7-------7----------------------|
A|-------------------------------|5-------5----------------------|
E|-------------------------------|-------------------------------|




Em B
e|------- ------- ------- -------|------- ------- ------- -------|
B|-------------------------------|-------------------------------|
G|-------------------------------|-------------------------------|
D|2---2---2---2---2---2---2------|------------------------9---9--|
A|2---2---2---2---2---2---2------|------------------------9---9--|
E|0---0---0---0---0---0---0------|------------------------7---7--|
I wanna hold your hand
e|------- ------- ------- -------|------- ------- ------- -------|
B|5------------------------------|0-----------0------------------|
G|-------------------------------|2B4-------------2B4-R-2-0------|
D|-------------------------------|-------------------------------|
A|-------------------------------|-------------------------------|
E|-------------------------------|-------------------------------|



C D G Em
e|0------ 0------ 2------ 2------|3------ 3------ 0------ 0------|
B|1-------1-------3-------3------|3-------3-------0-------0------|
G|0-------0-------2-------2------|0-------0-------0-------0------|
D|2-------2-------0-------0------|0-------0-------2-------2---0--|
A|3-------3----------------------|2-------2-------2-------2---0--|
E|------------------------0------|3-------3-------0-------0------|
I wanna hold your hand
e|------- ------- ------- -------|------- ------- ------- -------|
B|-------------------------------|-------------------------------|
G|0------------------------------|-------------------------------|
D|2---------------0--------------|-------------------------------|
A|-------------------------------|-------------------------------|
E|-------------------------------|-------------------------------|



C D7 B
e|0------ 0------ 2------ 2------|------- ------- ------- -------|
B|1-------1-------1-------1------|-------------------------------|
G|0-------0-------2-------2------|-------------------------------|
D|2-------2-------0-------0------|9---9---9---9---9---9---9---9--|
A|3-------3----------------------|9---9---9---9---9---9---9---9--|
E|----------------0-------0------|7---7---7---7---7---7---7---7--|
I wanna hold your hand
e|------- ------- ------- -------/7------ 7------ 7------ -------|
B|-------------------------------/7-------7-------7-------5P3----|
G|5---------------7--------------|----------------------------4--|
D|5---------------7--------------|-------------------------------|
A|3---------------5--------------|-------------------------------|
E|-------------------------------|-------------------------------|





C D C
e|0------ 0------ 2------ 2------|------- ------- ------- -------|
B|1-------1-------3-------3------|5----5----5-----5----5----5----|
G|0-------0-------2-------2------|5----5----5-----5----5----5----|
D|2-------2-------0-------0------|5----5----5-----5----5----5----|
A|3-------3----------------------|3----3----3-----3----3----3----|
E|-------------------------------|-------------------------------|

e|------- ------- ------- -------|------- ------- ------- -------|
B|-------------------------------|-------------------------------|
G|-------------------------------|-------------------------------|
D|2---------------0--------------|-----2----0----------2----0----|
A|-------------------------------|3---------------3--------------|
E|-------------------------------|-------------------------------|



(.
G
e|3------ ------- ------- -------|------- ------- ------- -------|
B|3------------------------------|-------------------------------|
G|4------------------------------|-------------------------------|
D|5------------------------------|-------------------------------|
A|5------------------------------|-------------------------------|
E|3------------------------------|-------------------------------|

e|3------ ------- ------- -------|------- ------- ------- -------|
B|3------------------------------|-------------------------------|
G|0------------------------------|-------------------------------|
D|0------------------------------|-------------------------------|
A|2------------------------------|-------------------------------|
E|3------------------------------|-------------------------------|







B Bend
R Release
/ slide up
\ slide down
H hammer-on
P pull-off
~ vibrato
+ harmonic
x Mute note
. - play note like a dot in standard notation
^ - ties two notes together
(. Pause

pjvill

Submitted by pjvill at Sat 10 Dec, 2005 4:55 am

Author: ?
Composer: ?
Publisher: ?
Language: English

Reactions

CommonCrawl [Bot]

Follow Muzikum