The Beatles

The Beatles
I Need You (Guitar tab)

------------------------------------------------------------------
THE BEATLES - I NEED YOU (Harrison) From HELP album. Released on
August 6th 1965.

------------------------------------------------------------------

Tabbed by:PJVillanueva





You don't realize how much I need you.
Love you all the time and never leave you

Please come on back to me.
I'm lonely as can be.
I need you.

Said you had a thing or two to tell me.
How was I to know you would upset me.
I didn't realize as I looked in your eyes.
You told me.

Oh, yes, you told me
You don't want my lovin' anymore.
That's when it hurt me and feeling like this,
I just can't go on anymore.

Please remember how I feel about you.
I could never really live without you.

So, come on back and see
Just what you mean to me.
I need you.

But when you told me you don't want my lovin' anymore.
That's when it hurt me and feeling like this,
I just can't go on anymore.

Please remember how I feel about you.
I could never really live without you.

So, come on back and see just what you mean to me.
I need you.
I need you.
I need you.







A
e|0------ 0---0-- ----0-- 0---0--|0---0-- 0------ 0------ 0------|
B|2-------2---2-------2---2---2--|2---2---2-------2-------2------|
G|2-------2---2-------2---2---2--|2---2---2-------2-------2------|
D|2-------2---2-------2---2---2--|2---2---2-------2-------2------|
A|0-------0---0-------0---0---0--|0---0---0-------0-------0------|
E|-------------------------------|-------------------------------|

e|5------ 5------ ------- -------|----5-- ------- 5------ -------|
B|5-------5----------------------|----5-----------5--------------|
G|6-------4----------------------|----7-----------6--------------|
D|-------------------------------|-------------------------------|

D A
e|0------ 0---0-- ------- 0------|2------ 2---2-- ----2-- 2---0--|
B|2-------2---2-----------2------|3-------3---3-------3---3---2--|
G|2-------2---2-----------2------|2-------2---2-------2---2---2--|
D|2-------2---2-----------2------|----------------------------2--|
A|0-------0---0-----------0------|----------------------------0--|
E|-------------------------------|-------------------------------|
You don't realise how much I need
e|------- ------- ------- -------|------- ------- ------- ----5--|
B|-------------------------------|----------------------------5--|
G|-------------------------------|----------------------------6--|
D|-------------------------------|-------------------------------|



Asus2 Asus4 A
e|----0-- 0---0-- 0---0-- 0---0--|----0-- 0---0-- 0---0-- 0---0--|
B|----0---0---0---0---0---0---3--|----2---2---2---2---2---2---2--|
G|----2---2---2---2---2---2---2--|----2---2---2---2---2---2---2--|
D|----2---2---2---2---2---2---2--|----2---2---2---2---2---2---2--|
A|----0---0---0---0---0---0---0--|----0---0---0---0---0---0---0--|
E|-------------------------------|-------------------------------|
you
e|----5-- ------- ------- ----5--|----5-- ------- ------- -------|
B|----5-----------------------5--|----5--------------------------|
G|----4-----------------------7--|----6--------------------------|
D|-------------------------------|-------------------------------|



D A
e|0---0-- 0---0-- 0---0-- 0---2--|----2-- 2---2-- 2---2-- 2---0--|
B|2---2---2---2---2---2---2---3--|----3---3---3---3---3---3---2--|
G|2---2---2---2---2---2---2---2--|----2---2---2---2---2---2---2--|
D|2---2---2---2---2---2---2---0--|----0---0---0---0---0---0---2--|
A|0---0---0---0---0---0---0------|----------------------------0--|
E|-------------------------------|-------------------------------|
Love you all the time and never leave
e|------- ------- ------- -------|------- ------- ------- ----5--|
B|-------------------------------|----------------------------5--|
G|-------------------------------|----------------------------6--|
D|-------------------------------|----------------------------7--|
A|-------------------------------|----------------------------7--|
E|-------------------------------|-------------------------------|

A7 Asus4 A
e|----0-- 0---0-- 0---0-- 0---0--|----0-- 0---0-- 0---0-- 0---0--|
B|----2---2---2---2---2---2---3--|----2---2---2---2---2---2---2--|
G|----0---0---0---0---0---0---2--|----2---2---2---2---2---2---2--|
D|----2---2---2---2---2---2---2--|----2---2---2---2---2---2---2--|
A|----0---0---0---0---0---0---0--|----0---0---0---0---0---0---0--|
E|-------------------------------|-------------------------------|
you Please
e|----5-- ------- ------- ----5--|----5-- ------- ------- -------|
B|----5-----------------------5--|----5--------------------------|
G|----6-----------------------7--|----6--------------------------|
D|----5-----------------------5--|----5--------------------------|
A|----7-----------------------7--|----7--------------------------|
E|-------------------------------|-------------------------------|


F#m C#m
e|2---2-- 2---2-- 2---2-- 2------|4---4-- 4---4-- 4---4-- 4------|
B|2---2---2---2---2---2---2------|5---5---5---5---5---5---5------|
G|2---2---2---2---2---2---2------|6---6---6---6---6---6---6------|
D|4---4---4---4---4---4---4------|6---6---6---6---6---6---6------|
A|4---4---4---4---4---4---4------|4---4---4---4---4---4---4------|
E|2---2---2---2---2---2---2------|-------------------------------|
come on back to me I'm
e|----2-- ------- ------- -------|4------ ----4-- ------- -------|
B|----2--------------------------|5-----------5------------------|
G|----2--------------------------|6-----------6------------------|
D|----4--------------------------|6-----------6------------------|
A|----4--------------------------|4-----------4------------------|
E|-------------------------------|-------------------------------|

F#m Bm A
e|2------ 2------ 2---2-- 2------|2------ 2---2-- ----2-- 2---0--|
B|2-------2-------2---2---2------|3-------3---3-------3---3---2--|
G|2-------2-------2---2---2------|4-------4---4-------4---4---2--|
D|4-------4-------4---4---4------|4-------4---4-------4---4---2--|
A|4-------4-------4---4---4------|2-------2---2-------2---2---0--|
E|2-------2-------2---2---2------|-------------------------------|
lonely as can be I need
e|2------ ------- ------- -------|2------ ------- ------- ----5--|
B|2------------------------------|3---------------------------5--|
G|2------------------------------|4---------------------------6--|
D|4------------------------------|4------------------------------|
A|4------------------------------|2------------------------------|
E|-------------------------------|-------------------------------|

Asus2 Asus4 A
e|----0-- 0---0-- 0---0-- 0---0--|----0-- 0---0-- 0---0-- 0---0--|
B|----0---0---0---0---0---0---3--|----2---2---2---2---2---2---2--|
G|----2---2---2---2---2---2---2--|----2---2---2---2---2---2---2--|
D|----2---2---2---2---2---2---2--|----2---2---2---2---2---2---2--|
A|----0---0---0---0---0---0---0--|----0---0---0---0---0---0---0--|
E|-------------------------------|-------------------------------|
you
e|----5-- ------- ------- ----5--|----5-- ------- ------- -------|
B|----5-----------------------5--|----5--------------------------|
G|----4-----------------------7--|----6--------------------------|
D|----------------------------5--|----5--------------------------|
A|----------------------------7--|----7--------------------------|
E|-------------------------------|-------------------------------|



D A
e|0------ 0---0-- 0---0-- 0---0--|2------ 2---2-- 2---2-- 2---0--|
B|2-------2---2---2---2---2---2--|3-------3---3---3---3---3---2--|
G|2-------2---2---2---2---2---2--|2-------2---2---2---2---2---2--|
D|2-------2---2---2---2---2---2--|0-------0---0---0---0---0---2--|
A|0-------0---0---0---0---0---0--|----------------------------0--|
E|-------------------------------|-------------------------------|
Said you had a thing or two to tell
e|------- ------- ------- -------|------- ------- ------- ----5--|
B|-------------------------------|----------------------------5--|
G|-------------------------------|----------------------------6--|
D|-------------------------------|-------------------------------|

Asus2 Asus4 A
e|----0-- 0---0-- 0---0-- 0---0--|----0-- ----0-- 0---0-- 0---0--|
B|----0---0---0---0---0---0---3--|----2-------2---2---2---2---2--|
G|----2---2---2---2---2---2---2--|----2-------2---2---2---2---2--|
D|----2---2---2---2---2---2---2--|----2-------2---2---2---2---2--|
A|----0---0---0---0---0---0---0--|----0-------0---0---0---0---0--|
E|-------------------------------|-------------------------------|
me
e|----5-- ------- ------- ----5--|----5-- ------- ------- -------|
B|----5-----------------------5--|----5--------------------------|
G|----4-----------------------7--|----6--------------------------|
D|----------------------------5--|----5--------------------------|
A|----------------------------7--|----7--------------------------|
E|-------------------------------|-------------------------------|


A D A
e|0------ 0------ 0---0-- 0---2--|----2-- 2---2-- 2---2-- 2---0--|
B|2-------2-------2---2---2---3--|----3---3---3---3---3---3---2--|
G|2-------2-------2---2---2---2--|----2---2---2---2---2---2---2--|
D|2-------2-------2---2---2---0--|----0---0---0---0---0---0---2--|
A|0-------0-------0---0---0------|----------------------------0--|
E|-------------------------------|-------------------------------|
How was I to know you would upset
e|------- ------- ------- -------|------- ------- ------- ----5--|
B|-------------------------------|----------------------------5--|
G|-------------------------------|----------------------------6--|
D|-------------------------------|----------------------------7--|


A7 Asus4 A
e|----0-- 0---0-- 0---0-- 0---0--|----0-- 0---0-- 0---0-- 0------|
B|----2---2---2---2---2---2---3--|----2---2---2---2---2---2------|
G|----0---0---0---0---0---0---2--|----2---2---2---2---2---2------|
D|----2---2---2---2---2---2---2--|----2---2---2---2---2---2------|
A|----0---0---0---0---0---0---0--|----0---0---0---0---0---0------|
E|-------------------------------|-------------------------------|
me? I
e|----5-- ------- ------- ----5--|----5-- ------- ------- -------|
B|----5-----------------------5--|----5--------------------------|
G|----6-----------------------7--|----6--------------------------|
D|----5-----------------------5--|----5--------------------------|
A|----------------------------7--|----7--------------------------|
E|-------------------------------|-------------------------------|


F#m C#m
e|2---2-- 2---2-- 2---2-- 2------|4---4-- 4---4-- 4---4-- 4------|
B|2---2---2---2---2---2---2------|5---5---5---5---5---5---5------|
G|2---2---2---2---2---2---2------|6---6---6---6---6---6---6------|
D|4---4---4---4---4---4---4------|6---6---6---6---6---6---6------|
A|4---4---4---4---4---4---4------|4---4---4---4---4---4---4------|
E|2---2---2---2---2---2---2------|-------------------------------|
didn't re..............alise as
e|2------ ----2-- ------- -------|4------ ----4-- ------- -------|
B|2-----------2------------------|5-----------5------------------|
G|2-----------2------------------|6-----------6------------------|
D|4-----------4------------------|6-----------6------------------|

F#m Bm A
e|2---2-- 2---2-- 2---2-- 2---2--|2---2-- 2------ 2---2-- 2---0--|
B|2---2---2---2---2---2---2---2--|3---3---3-------3---3---3---2--|
G|2---2---2---2---2---2---2---2--|4---4---4-------4---4---4---2--|
D|4---4---4---4---4---4---4---4--|4---4---4-------4---4---4---2--|
A|4---4---4---4---4---4---4---4--|2---2---2-------2---2---2---0--|
E|2---2---2---2---2---2---2---2--|-------------------------------|
I looked in your eyes you told
e|2------ ----2-- ------- -------|2------ ----2-- ------- ----5--|
B|2-----------2------------------|3-----------3---------------5--|
G|2-----------2------------------|4-----------4---------------6--|
D|4-----------4------------------|4-----------4------------------|

Asus2 Asus4 A
e|----0-- 0---0-- 0---0-- 0---0--|----0-- 0---0-- ----0-- 0---0--|
B|----0---0---0---0---0---0---3--|----2---2---2-------2---2---2--|
G|----2---2---2---2---2---2---2--|----2---2---2-------2---2---2--|
D|----2---2---2---2---2---2---2--|----2---2---2-------2---2---2--|
A|----0---0---0---0---0---0---0--|----0---0---0-------0---0---0--|
E|-------------------------------|-------------------------------|
me Oh yes, you
e|----5-- ------- ------- ----5--|----5-- ------- ----5-- -------|
B|----5-----------------------5--|----5---------------6----------|
G|----4-----------------------7--|----6---------------6----------|
D|----------------------------5--|----5---------------7----------|
A|----------------------------7--|----7--------------------------|
E|-------------------------------|-------------------------------|


D E
e|2---2-- 2---2-- 2---2-- 2---2--|0---0-- 0---0-- 0---0-- 0---0--|
B|3---3---3---3---3---3---3---3--|0---0---0---0---0---0---0---0--|
G|2---2---2---2---2---2---2---2--|1---1---1---1---1---1---1---1--|
D|0---0---0---0---0---0---0---0--|2---2---2---2---2---2---2---2--|
A|-------------------------------|2---2---2---2---2---2---2---2--|
E|-------------------------------|0---0---0---0---0---0---0---0--|
told me you don't want my lovin' anymore
e|------- ------- ------- -------|------- ------- ------- -------|
B|-------------------------------|0-----------0------------------|
G|-------------------------------|1-----------1------------------|
D|-------------------------------|2-----------2------------------|


A
e|0-----0 0---0-- ----0-- 0------|0-----0 0---0-- 0---0-- 0------|
B|2-----2-2---2-------2---2------|2-----2-2---2---2---2---2------|
G|2-----2-2---2-------2---2------|2-----2-2---2---2---2---2------|
D|2-----2-2---2-------2---2------|2-----2-2---2---2---2---2------|
A|0-----0-0---0-------0---0------|0-----0-0---0---0---0---0------|
E|-------------------------------|-------------------------------|
That's when it
e|5------ ----5-- ------- 5------|------- ------- 5------ -------|
B|5-----------5-----------5------|----------------6--------------|
G|6-----------6-----------6------|----------------6--------------|
D|7-----------7-----------7------|----------------7--------------|

D E
e|2---2-- 2---2-- 2---2-- 2---2--|0---0-- 0---0-- 0---0-- 0---0--|
B|3---3---3---3---3---3---3---3--|0---0---0---0---0---0---0---0--|
G|2---2---2---2---2---2---2---2--|1---1---1---1---1---1---1---1--|
D|0---0---0---0---0---0---0---0--|2---2---2---2---2---2---2---2--|
A|-------------------------------|2---2---2---2---2---2---2---2--|
E|-------------------------------|0---0---0---0---0---0---0---0--|
hurt me and feeling like this I
e|5------ ------- ------- -------|------- ------- ------- -------|
B|7------------------------------|-------------------------------|
G|7------------------------------|-------------------------------|
D|7------------------------------|-------------------------------|

Bm E
e|2------ 2---2-- 2---2-- 2---2--|0-----0 0---0-- ----0-- 0---0--|
B|3-------3---3---3---3---3---3--|0-----0-0---0-------0---0---0--|
G|4-------4---4---4---4---4---4--|1-----1-1---1-------1---1---1--|
D|4-------4---4---4---4---4---4--|2-----2-2---2-------2---2---2--|
A|2-------2---2---2---2---2---2--|2-----2-2---2-------2---2---2--|
E|-------------------------------|-------------------------------|
just can't go on a....nymore
e|11----- ------- 7------ -------|4------ ------- ------- -------|
B|12--------------7--------------|5------------------------------|
G|11--------------8--------------|4------------------------------|
D|-------------------------------|-------------------------------|



e|0-----0 0---0-- 0---0-- 0---0--|
B|0-----0-0---0---0---0---0---0--|
G|1-----1-1---1---1---1---1---1--|
D|2-----2-2---2---2---2---2---2--|
A|2-----2-2---2---2---2---2---2--|
E|0-----0-0---0---0---0---0---0--|

e|0------ ------- ------- -------|
B|0------------------------------|
G|1------------------------------|
D|2------------------------------|



A D A
e|0------ 0------ 0---0-- 0---0--|2------ 2---2-- 2---2-- 2---0--|
B|2-------2-------2---2---2---2--|3-------3---3---3---3---3---2--|
G|2-------2-------2---2---2---2--|2-------2---2---2---2---2---2--|
D|2-------2-------2---2---2---2--|0-------0---0---0---0---0---2--|
A|0-------0-------0---0---0---0--|----------------------------0--|
E|-------------------------------|-------------------------------|
Please remember how I feel about
e|------- ------- ------- -------|------- ------- ------- ----5--|
B|-------------------------------|----------------------------5--|
G|-------------------------------|----------------------------6--|
D|-------------------------------|-------------------------------|


Asus2 Asus4 A
e|----0-- 0---0-- 0---0-- 0---0--|----0-- 0---0-- 0---0-- 0---0--|
B|----0---0---0---0---0---0---3--|----2---2---2---2---2---2---2--|
G|----2---2---2---2---2---2---2--|----2---2---2---2---2---2---2--|
D|----2---2---2---2---2---2---2--|----2---2---2---2---2---2---2--|
A|----0---0---0---0---0---0---0--|----0---0---0---0---0---0---0--|
E|-------------------------------|-------------------------------|
you
e|----5-- ------- ------- ----5--|----5-- ------- ------- -------|
B|----5-----------------------5--|----5--------------------------|
G|----4-----------------------7--|----6--------------------------|
D|----------------------------5--|----5--------------------------|
A|----------------------------7--|----7--------------------------|
E|-------------------------------|-------------------------------|


A D A
e|0---0-- 0------ 0---0-- 0---0--|2---2-- 2---2-- 2---2-- 2---0--|
B|2---2---2-------2---2---2---2--|3---3---3---3---3---3---3---2--|
G|2---2---2-------2---2---2---2--|2---2---2---2---2---2---2---2--|
D|2---2---2-------2---2---2---2--|0---0---0---0---0---0---0---2--|
A|0---0---0-------0---0---0---0--|----------------------------0--|
E|-------------------------------|-------------------------------|
I could never re......ally live without
e|------- ------- ------- -------|------- ------- ------- ----5--|
B|-------------------------------|----------------------------5--|
G|-------------------------------|----------------------------6--|
D|-------------------------------|----------------------------7--|
A|-------------------------------|----------------------------7--|
E|-------------------------------|-------------------------------|


A7 Asus4 A
e|----0-- 0---0-- 0---0-- 0---0--|----0-- ----0-- 0---0-- 0---0--|
B|----2---2---2---2---2---2---3--|----2-------2---2---2---2---2--|
G|----0---0---0---0---0---0---2--|----2-------2---2---2---2---2--|
D|----2---2---2---2---2---2---2--|----2-------2---2---2---2---2--|
A|----0---0---0---0---0---0---0--|----0-------0---0---0---0---0--|
E|-------------------------------|-------------------------------|
you So
e|----5-- ------- ------- ----5--|----5-- ------- ------- -------|
B|----5-----------------------5--|----5--------------------------|
G|----6-----------------------7--|----6--------------------------|
D|----5-----------------------5--|----5--------------------------|
A|----7-----------------------7--|----7--------------------------|
E|-------------------------------|-------------------------------|


F#m C#m
e|2---2-- 2---2-- 2---2-- 2------|4---4-- 4---4-- 4---4-- 4------|
B|2---2---2---2---2---2---2------|5---5---5---5---5---5---5------|
G|2---2---2---2---2---2---2------|6---6---6---6---6---6---6------|
D|4---4---4---4---4---4---4------|6---6---6---6---6---6---6------|
A|4---4---4---4---4---4---4------|4---4---4---4---4---4---4------|
E|2---2---2---2---2---2---2------|-------------------------------|
come on back and see just
e|----2-- ------- ------- -------|4------ ----4-- ------- -------|
B|----2--------------------------|5-----------5------------------|
G|----2--------------------------|6-----------6------------------|
D|----4--------------------------|6-----------6------------------|


F#m Bm A
e|2------ 2---2-- 2---2-- 2---2--|2------ 2---2-- ----2-- 2---0--|
B|2-------2---2---2---2---2---2--|3-------3---3-------3---3---2--|
G|2-------2---2---2---2---2---2--|4-------4---4-------4---4---2--|
D|4-------4---4---4---4---4---4--|4-------4---4-------4---4---2--|
A|4-------4---4---4---4---4---4--|2-------2---2-------2---2---0--|
E|2-------2---2---2---2---2---2--|-------------------------------|
what you mean to me I need
e|----2-- ------- ------- -------|7------ ----7-- ------- ----5--|
B|----2--------------------------|7-----------7---------------5--|
G|----2--------------------------|7-----------7---------------6--|
D|----4--------------------------|9-----------9------------------|


Asus2 Asus4 A
e|----0-- 0---0-- 0---0-- 0---0--|----0-- 0---0-- 0---0-- 0---0--|
B|----0---0---0---0---0---0---3--|----2---2---2---2---2---2---2--|
G|----2---2---2---2---2---2---2--|----2---2---2---2---2---2---2--|
D|----2---2---2---2---2---2---2--|----2---2---2---2---2---2---2--|
A|----0---0---0---0---0---0---0--|----0---0---0---0---0---0---0--|
E|-------------------------------|-------------------------------|
you But when you
e|----5-- ------- ------- ----5--|----5-- ------- ------- -------|
B|----5-----------------------5--|----5--------------------------|
G|----4-----------------------7--|----6--------------------------|
D|----------------------------5--|----5--------------------------|
A|----------------------------7--|----7--------------------------|
E|-------------------------------|-------------------------------|


D E
e|2---2-- 2---2-- 2---2-- 2---2--|0---0-- 0---0-- 0---0-- 0---0--|
B|3---3---3---3---3---3---3---3--|0---0---0---0---0---0---0---0--|
G|2---2---2---2---2---2---2---2--|1---1---1---1---1---1---1---1--|
D|0---0---0---0---0---0---0---0--|2---2---2---2---2---2---2---2--|
A|-------------------------------|2---2---2---2---2---2---2---2--|
E|-------------------------------|0---0---0---0---0---0---0---0--|
told me you don't want my lovin' anymore
e|------- ------- 5------ -------|------- ------- ------- -------|
B|----------------7--------------|-------------------------------|
G|----------------7--------------|-------------------------------|
D|-------------------------------|-------------------------------|


A
e|0-----0 0---0-- ----0-- 0---0--|0-----0 0---0-- 0---0-- 0---0--|
B|2-----2-2---2-------2---2---2--|2-----2-2---2---2---2---2---2--|
G|2-----2-2---2-------2---2---2--|2-----2-2---2---2---2---2---2--|
D|2-----2-2---2-------2---2---2--|2-----2-2---2---2---2---2---2--|
A|0-----0-0---0-------0---0---0--|0-----0-0---0---0---0---0---0--|
E|-------------------------------|-------------------------------|
That's when it
e|5------ ----5-- ------- -------|------- ------- ------- 5------|
B|5-----------5------------------|------------------------5------|
G|6-----------6------------------|------------------------6------|
D|7-----------7------------------|------------------------7------|


D E
e|2---2-- 2---2-- 2---2-- 2------|0---0-- 0---0-- 0------ 0------|
B|3---3---3---3---3---3---3------|0---0---0---0---0-------0------|
G|2---2---2---2---2---2---2------|1---1---1---1---1-------1------|
D|0---0---0---0---0---0---0------|2---2---2---2---2-------2------|
A|-------------------------------|2---2---2---2---2-------2------|
E|-------------------------------|0---0---0---0---0-------0------|
hurt me and feeling like this I
e|------- ------- ------- -------|------- ------- ------- -------|
B|-------------------------------|-------------------------------|
G|-------------------------------|-------------------------------|
D|-------------------------------|-------------------------------|


Bm E
e|2------ 2---2-- 2------ 2------|0-----0 0---0-- ----0-- 0---0--|
B|3-------3---3---3-------3------|0-----0-0---0-------0---0---0--|
G|4-------4---4---4-------4------|1-----1-1---1-------1---1---1--|
D|4-------4---4---4-------4------|2-----2-2---2-------2---2---2--|
A|2-------2---2---2-------2------|2-----2-2---2-------2---2---2--|
E|-------------------------------|-------------------------------|
just can't go on a....nymore
e|11----- ------- 7------ -------|4------ ------- ------- -------|
B|12--------------7--------------|5------------------------------|
G|11--------------8--------------|4------------------------------|
D|-------------------------------|-------------------------------|



e|0-----0 0---0-- 0---0-- 0---0--|
B|0-----0-0---0---0---0---0---0--|
G|1-----1-1---1---1---1---1---1--|
D|2-----2-2---2---2---2---2---2--|
A|2-----2-2---2---2---2---2---2--|
E|0-----0-0---0---0---0---0---0--|

e|0------ ------- ------- -------|
B|0------------------------------|
G|1------------------------------|
D|2------------------------------|



A D A
e|0------ 0------ 0---0-- 0---0--|2---2-- 2---2-- ----2-- 2---0--|
B|2-------2-------2---2---2---2--|3---3---3---3-------3---3---2--|
G|2-------2-------2---2---2---2--|2---2---2---2-------2---2---2--|
D|2-------2-------2---2---2---2--|0---0---0---0-------0---0---2--|
A|0-------0-------0---0---0---0--|----------------------------0--|
E|-------------------------------|-------------------------------|
Please remember how I feel about
e|------- ------- ------- -------|------- ------- ------- ----5--|
B|-------------------------------|----------------------------5--|
G|-------------------------------|----------------------------6--|
D|-------------------------------|-------------------------------|


Asus2 Asus4 A
e|----0-- 0---0-- 0---0-- 0---0--|----0-- 0---0-- 0---0-- 0---0--|
B|----0---0---0---0---0---0---3--|----2---2---2---2---2---2---2--|
G|----2---2---2---2---2---2---2--|----2---2---2---2---2---2---2--|
D|----2---2---2---2---2---2---2--|----2---2---2---2---2---2---2--|
A|----0---0---0---0---0---0---0--|----0---0---0---0---0---0---0--|
E|-------------------------------|-------------------------------|
you
e|----5-- ------- ------- ----5--|----5-- ------- ------- -------|
B|----5-----------------------5--|----5--------------------------|
G|----4-----------------------7--|----6--------------------------|
D|----------------------------5--|----5--------------------------|
A|----------------------------7--|----7--------------------------|
E|-------------------------------|-------------------------------|


D A
e|0---0-- 0------ 0---0-- 0---0--|2---2-- 2---2-- ----2-- 2---0--|
B|2---2---2-------2---2---2---2--|3---3---3---3-------3---3---2--|
G|2---2---2-------2---2---2---2--|2---2---2---2-------2---2---2--|
D|2---2---2-------2---2---2---2--|0---0---0---0-------0---0---2--|
A|0---0---0-------0---0---0---0--|----------------------------0--|
E|-------------------------------|-------------------------------|
I could never re......ally live without
e|------- ------- ------- -------|------- ------- ------- ----5--|
B|-------------------------------|----------------------------5--|
G|-------------------------------|----------------------------6--|
D|-------------------------------|----------------------------7--|
A|-------------------------------|----------------------------7--|
E|-------------------------------|-------------------------------|


A7 Asus4 A
e|----0-- 0---0-- 0---0-- 0---0--|----0-- 0---0-- 0---0-- 0---0--|
B|----2---2---2---2---2---2---3--|----2---2---2---2---2---2---2--|
G|----0---0---0---0---0---0---2--|----2---2---2---2---2---2---2--|
D|----2---2---2---2---2---2---2--|----2---2---2---2---2---2---2--|
A|----0---0---0---0---0---0---0--|----0---0---0---0---0---0---0--|
E|-------------------------------|-------------------------------|
you So
e|----5-- ------- ------- ----5--|----5-- ------- ------- -------|
B|----5-----------------------5--|----5--------------------------|
G|----6-----------------------7--|----6--------------------------|
D|----5-----------------------5--|----5--------------------------|
A|----7-----------------------7--|----7--------------------------|
E|-------------------------------|-------------------------------|



F#m C#m
e|2---2-- 2---2-- 2---2-- 2------|4---4-- 4---4-- 4---4-- 4------|
B|2---2---2---2---2---2---2------|5---5---5---5---5---5---5------|
G|2---2---2---2---2---2---2------|6---6---6---6---6---6---6------|
D|4---4---4---4---4---4---4------|6---6---6---6---6---6---6------|
A|4---4---4---4---4---4---4------|4---4---4---4---4---4---4------|
E|2---2---2---2---2---2---2------|-------------------------------|
come on back and see just
e|----2-- ------- ------- -------|4------ ----4-- ------- -------|
B|----2--------------------------|5-----------5------------------|
G|----2--------------------------|6-----------6------------------|
D|----4--------------------------|6-----------6------------------|



F#m Bm A
e|2------ 2---2-- 2---2-- 2------|2------ 2------ 2---2-- 2---0--|
B|2-------2---2---2---2---2------|3-------3-------3---3---3---2--|
G|2-------2---2---2---2---2------|4-------4-------4---4---4---2--|
D|4-------4---4---4---4---4------|4-------4-------4---4---4---2--|
A|4-------4---4---4---4---4------|2-------2-------2---2---2---0--|
E|2-------2---2---2---2---2------|-------------------------------|
what you mean to me I need

e|2------ ----2-- ------- -------|2------ ----2-- ------- ----5--|
B|2-----------2------------------|3-----------3---------------5--|
G|2-----------2------------------|4-----------4---------------6--|
D|4-----------4------------------|4-----------4------------------|


Asus2 Asus4 A
e|----0-- 0---0-- 0---0-- 0---0--|----0-- 0---0-- 0---0-- 0---0--|
B|----0---0---0---0---0---0---3--|----2---2---2---2---2---2---2--|
G|----2---2---2---2---2---2---2--|----2---2---2---2---2---2---2--|
D|----2---2---2---2---2---2---2--|----2---2---2---2---2---2---2--|
A|----0---0---0---0---0---0---0--|----0---0---0---0---0---0---0--|
E|-------------------------------|-------------------------------|
you I need
e|----5-- ------- ------- ----5--|----5-- ------- ------- -------|
B|----5-----------------------5--|----5--------------------------|
G|----4-----------------------7--|----6--------------------------|
D|----------------------------5--|----5--------------------------|
A|----------------------------7--|----7--------------------------|
E|-------------------------------|-------------------------------|


F#m D
e|----2-- ----2-- 2---2-- 2---2--|----2-- 2------ 2---2-- 2---2--|
B|----2-------2---2---2---2---2--|----2---2-------2---2---2---3--|
G|----2-------2---2---2---2---2--|----2---2-------2---2---2---2--|
D|----4-------4---4---4---4---4--|----4---4-------4---4---4---0--|
A|----4-------4---4---4---4---4--|----4---4-------4---4---4------|
E|----2-------2---2---2---2---2--|----2---2-------2---2---2------|
you I need
e|2------ ----2-- ------- 2------|2------ ----2-- ------- 2------|
B|2-----------2-----------2------|2-----------2-----------2------|
G|2-----------2-----------2------|2-----------2-----------2------|
D|4-----------4-----------4------|4-----------4-----------4------|



A
e|----2-- 2---2-- 2---2-- 2---2--|----2-- 2---2-- 2---2-- 2---0--|
B|----3---3---3---3---3---3---3--|----3---3---3---3---3---3---2--|
G|----2---2---2---2---2---2---2--|----2---2---2---2---2---2---2--|
D|----0---0---0---0---0---0---0--|----0---0---0---0---0---0---2--|
A|-------------------------------|----------------------------0--|
E|-------------------------------|-------------------------------|
you
e|5------ ----5-- ------- 5------|5------ ----5-- ------- -------|
B|7-----------7-----------7------|7-----------7------------------|
G|7-----------7-----------7------|7-----------7------------------|
D|7-----------7-----------7------|7-----------7------------------|

(.
Asus2 Asus4 A
e|----0-- ----0-- 0---0-- 0---0--|----0-- ------- 0------ -------|
B|----2-------0---0---0---0---0--|----3-----------2--------------|
G|----2-------2---2---2---2---2--|----2-----------2--------------|
D|----2-------2---2---2---2---2--|----2-----------2--------------|
A|----0-------0---0---0---0---0--|----0-----------0--------------|
E|-------------------------------|-------------------------------|

e|5------ ----5-- ----5-- -------|----5-- ------- 5------ -------|
B|5-----------5-------5----------|----5-----------5--------------|
G|6-----------4-------4----------|----7-----------6--------------|
D|-------------------------------|----5-----------5--------------|
A|-------------------------------|----7-----------7--------------|
E|-------------------------------|-------------------------------|






B Bend
R Release
/ slide up
\ slide down
H hammer-on
P pull-off
~ vibrato
+ harmonic
x Mute note
. - play note like a dot in standard notation
^ - ties two notes together
(. Pause

pjvill

Submitted by pjvill at Sat 10 Dec, 2005 4:51 am

Author: ?
Composer: ?
Publisher: ?
Language: English

Reactions

CommonCrawl [Bot]

Follow Muzikum