The Beatles

The Beatles
I Feel Fine Ver 3 (Guitar tab)

---------------------------------------------------------------------

THE BEATLES - I FEEL FINE (Lennon/McCartney) Released as a single on
27 November 1964 with SHE'S A WOMAN as the B side.


---------------------------------------------------------------------

Tabbed by:PJVillanueva



D7 C7 G7


G7
Baby’s good to me, you know,

She’s happy as can be, you know,
D7
She said so.
C G7
I’m in love with her and I feel fine.



G7
Baby says she’s mine, you know,

She tells me all the time, you know,
D7
She said so.
C G7
I’m in love with her and I feel fine.



Bm C D
I’m so glad that she’s my little girl.
G Bm Am D
She’s so glad, she’s telling all the world




G7
That her baby buys her things, you know.

He buys her diamond rings, you know,
D7
She said so.
C G7
She’s in love with me and I feel fine, mmm.


Solo

G7 D7 C7 G7


G7
Baby says she’s mine, you know,

She tells me all the time, you know,
D7
She said so.
C G7
I’m in love with her and I feel fine.



Bm C D
I’m so glad that she’s my little girl.
G Bm Am D7
She’s so glad, she’s telling all the world



G7
That her baby buys her things, you know.

He buys her diamond rings, you know,
D7
She said so.
C G7
She’s in love with me and I feel fine
D7 C G7
She’s in love with me and I feel fine, mmm, mmm.




Intro

******************
e|------------------------------------------------------|
B|------------------------------------------------------|
G|------------------------------------------------------|
D|------------------------------------------------------|
A|0-----------------------------------------------------|
E|------------------------------------------------------|


D7
e|------- ------- ------- -------|------- ------- ------- -------|
B|-------------------------------|-------------------------------|
G|--------------------------12---|---11-------------11-----------|
D|--------12------12-10----------|---10------14-----------14-----|
A|------------------------12-----|-----------12------------------|
E|10----------------------10-----|-------------------------------|


C7
e|------- ------- ------- -------|------- ------- ------- -------|
B|-------------------------------|-------------------------------|
G|--------------------------10---|----9--------------9-----------|
D|--------10-----10---8------8---|----8------12-----------12-----|
A|--------10-----10-------10-----|-----------10-----------10-----|
E|8------------------------8-----|-------------------------8--\--|


G7
e|------- ------- ------- -------|------- ------- ------- -------|
B|-------------------------------|-------------------------------|
G|---------------------------5---|---4---------------4-----------|
D|--------5-------5---3------3---|---3-------7------------7------|
A|--------5-------5-------5------|-----------5------------5------|
E|3-----------------------3------|-------------------------------|



e|------- ------- ------- -------|------- ------- ------- -------|
B|-------------------------------|-------------------------------|
G|---------------------------5---|---4---------------4-----------|
D|--------5-------5---3------3---|---3-------7------------7------|
A|--------5-------5-------5------|-----------5------------5------|
E|3-----------------------3------|-------------------------------|



Verse

G7
e|------- ------- ------- -------|------- ------- ------- -------|
B|-------------------------------|-------------------------------|
G|-------------------4-------5---|---4---------------4-------4---|
D|--------5-------5----------3---|---3-------7------------7--3---|
A|--------5----------------------|-------------------------------|
E|3------------------------------|-------------------------------|



e|------- ------- ------- -------|------- ------- ------- -------|
B|-------------------------------|-------------------------------|
G|-------------------4-------5---|---4---------------4-----------|
D|--------5-------5----------3---|---3-------7-------3----7------|
A|--------5----------------------|-------------------------------|
E|3------------------------------|-------------------------------|

D7
e|------- ------- ------- -------|------- ------- ------- -------|
B|-------------------------------|-------------------------------|
G|-------------------11-----12---|--11---------------11----------|
D|--------12------12--------10---|--10------14-------10---14-----|
A|-------------------------------|----------12------------12-----|
E|10-----------------------------|-------------------------------|


C7
e|------- ------- ------- -------|------- ------- ------- -------|
B|-------------------------------|-------------------------------|
G|11------11------11-11------9---|---------9--9------9-----------|
D|12------12------12-12-----10---|--------10-10-----10-----------|
A|12------12------12-12-----10---|--------10-10-----10-----------|
E|10------10------10-10------8---|---------8--8------8-----------|

G7
e|------- ------- ------- -------|------- ------- ------- -------|
B|-------------------------------|-------------------------------|
G|---------------------------5---|---4---------------4-----------|
D|--------5-------5---3------3---|---3-------7------------7------|
A|--------5-------5-------5------|-----------5------------5------|
E|3-----------------------3------|-------------------------------|



e|------- ------- ------- -------|------- ------- ------- -------|
B|-------------------------------|-------------------------------|
G|---------------------------5---|---4---------------4-----------|
D|--------5-------5---3------3---|---3-------7------------7------|
A|--------5-------5-------5------|-----------5------------5------|
E|3-----------------------3------|-------------------------------|





Middle eight


G Bm
e|------- ------- ------- -------|2------ 2---2-- 2---2-- -------|
B|3-------3-------x--3----3------|3-------3---3---3---3----------|
G|4-------4-------x--4----4------|4-------4---4---4---4----------|
D|5-------5-------x--5----5------|4-------4---4---4---4----------|
A|5-------5-------x--5----5------|2-------2---2---2---2----------|
E|3-------3-------x--3----3------|-------------------------------|


C D
e|------- ------- ------- -------|2------ 2------ 2---2-- ---2---|
B|1-------1-------1---1------1---|3-------3-------3---3------3---|
G|0-------0-------0---0------0---|2-------2-------2---2------2---|
D|2-------2-------2---2------2---|0-------0-------0---0------0---|
A|3-------3-------3---3------3---|-------------------------------|
E|3-------3-------3---3------3---|-------------------------------|


G Bm
e|------- ------- ------- -------|2------ 2---2-- 2---2-- -------|
B|3-------3-------x--3----3------|3-------3---3---3---3----------|
G|4-------4-------x--4----4------|4-------4---4---4---4----------|
D|5-------5-------x--5----5------|4-------4---4---4---4----------|
A|5-------5-------x--5----5------|2-------2---2---2---2----------|
E|3-------3-------x--3----3------|-------------------------------|


Am D
e|------- ------- ------- -------|2------ 2------ 2---2-- -------|
B|1-------1-------1---1------1---|3-------3-------3---3----------|
G|2-------2-------2---2------2---|2-------2-------2---2----------|
D|2-------2-------2---2------2---|0-------0-------0---0----------|
A|0-------0-------0---0------0---|-------------------------------|
E|-------------------------------|-------------------------------|





Solo

e|------- ------- ------- -------|------- ------- ------- -------|
B|-------------------------------|-------------------------------|
G|-------------------------------|---------------------------5-/-|
D|-------------------------------|-------------------------------|
A|-------------------------------|-------------------------------|
E|-------------------------------|-------------------------------|



G7
e|------- ------- ------- -------|------- ------- ------- -------|
B|--------6---------------8------|--------6----------------------|
G|7-------------/-9--------------|5-/-7-------7-\-5--3-------5-/-|
D|-------------------------------|------------------------5------|
A|-------------------------------|-------------------------------|
E|-------------------------------|-------------------------------|



e|------- ------- ------- -------|------- ------- ------- -------|
B|--------6---------------8------|--------6----------------------|
G|7-------------/-9--------------|5-/-7-------7-\-5--3-----------|
D|-------------------------------|------------------------5------|
A|-------------------------------|-------------------------------|
E|-------------------------------|-------------------------------|


D7
e|------- ------- ------- -------|------- ------- ------- -------|
B|-------------------------------|-------------------------------|
G|---------------------------12--|---11-------------11-------11--|
D|--------12------12-10----------|-----------14-----------14-----|
A|------------------------12-----|-------------------------------|
E|10-----------------------------|-------------------------------|



e|------- ------- ------- -------|------- ------- ------- -------|
B|-------------------------------|-------------------------------|
G|--------------------------12---|--11--------------11-----------|
D|--------12------12-10-----10---|--10------14------10----14--\--|
A|--------12------12------12-----|----------12------------12--\--|
E|10----------------------10-----|-------------------------------|


C7
e|------- ------- ------- -------|------- ------- ------- -------|
B|-------------------------------|-------------------------------|
G|---------------------------10--|---9---------------9-----------|
D|--------10------10--8-------8--|---8------12-------8----12--\--|
A|--------10------10------10-----|----------10------------10--\--|
E|-8-----------------------8-----|-------------------------------|


G7
e|------- ------- ------- -------|------- ------- ------- -------|
B|-------------------------------|-------------------------------|
G|---------------------------5---|---4---------------4-----------|
D|--------5-------5---3------3---|---3-------7------------7------|
A|--------5-------5-------5------|-----------5------------5------|
E|3-----------------------3------|-------------------------------|

e|------- ------- ------- -------|------- ------- ------- -------|
B|-------------------------------|-------------------------------|
G|-------------------------------|-------------------------------|
D|---------------------------3---|---------------------------3---|
A|------------------3--/--5------|------------------3--/--5------|
E|3-------3----------------------|-------------------------------|



Fade away........................................................
G7
e|------- ------- ------- -------|------- ------- ------- -------|
B|-------------------------------|-------------------------------|
G|---------------------------5---|---4---------------4-----------|
D|--------5-------5---3------3---|---3-------7------------7------|
A|--------5-------5-------5------|-----------5------------5------|
E|3-----------------------3------|-------------------------------|

e|------- ------- ------- -------|------- ------- ------- -------|
B|-------------------------------|-------------------------------|
G|-------------------------------|-------------------------------|
D|---------------------------3---|---------------------------3---|
A|------------------3--/--5------|------------------3--/--5------|
E|3-------3----------------------|-------------------------------|




...............................................................

e|------- ------- ------- -------|------- ------- ------- -------|
B|-------------------------------|-------------------------------|
G|---------------------------5---|---4---------------4-----------|
D|--------5-------5---3------3---|---3-------7------------7------|
A|--------5-------5-------5------|-----------5------------5------|
E|3-----------------------3------|-------------------------------|

e|------- ------- ------- -------|------- ------- ------- -------|
B|-------------------------------|-------------------------------|
G|-------------------------------|-------------------------------|
D|---------------------------3---|---------------------------3---|
A|------------------3--/--5------|------------------3--/--5------|
E|3-------3----------------------|-------------------------------|







B Bend
R Release
/ slide up
\ slide down
H hammer-on
P pull-off
~ vibrato
+ harmonic
x Mute note
. - play note like a dot in standard notation
^ - ties two notes together
(. Pause

pjvill

Submitted by pjvill at Sat 10 Dec, 2005 4:50 am

Author: ?
Composer: ?
Publisher: ?
Language: English

Reactions

CommonCrawl [Bot]

Follow Muzikum