The Beatles

The Beatles
I Don't Want To Spoil The Party (Guitar tab)

----------------------------------------------------------------------
THE BEATLES - I DON'T WANT TO SPOIL THE PARTY (Lennon/McCartney)
from BEATLES FOR SALE album.Released on 4th December
1964.

----------------------------------------------------------------------

Tabbed by:PJVillanueva






I don't want to spoil the party so I'll go,
I would hate my disappointment to show,
There's nothing for me here so I will disappear,
If she turns up while I'm gone please let me know.

I've had a drink or two and I don't care,
There's no fun in what I do if she's not there,
I wonder what went wrong I've waited far too long,
I think I'll take a walk and look for her.

Though tonight she's made me sad,
I still love her,
If I find her I'll be glad,
I still love her.

I don't want to spoil the party so I'll go,
I would hate my disappointment to show,
There's nothing for me here so I will disappear,
If she turns up while I'm gone please let me know.

Though tonight she's made me sad,
I still love her,
If I find her I'll be glad,
I still love her.

I've had a drink or two and I don't care,
There's no fun in what I do if she's not there,
I wonder what went wrong I've waited far too long,
I think I'll take a walk and look for her.






Intro

e|3------ ----3-- ----3-- 3------|------- 3------ 3------ -------|
B|3-----------3-------3---3------|--------0-------3-------0------|
G|0-----------0-------0---0------|0-------0-------0--------------|
D|0-----------0-------0---0------|3---------------2--------------|
A|2------------------------------|-------------------------------|
E|3------------------------------|-------------------------------|



e|------- 3------ ----3-- 3------|------- 3------ ------- 3------|
B|1-------1-----------1---1------|--------1---------------1------|
G|2-------2-----------2---2------|--------2-------2-------2------|
D|0-------0-----------0---0------|3---------------2--------------|
A|-------------------------------|-------------------------------|
E|-------------------------------|-------------------------------|



e|------- 2---2-- ----2-- 2------|------- 2------ ------- 2------|
B|--------3---3-------3---3------|--------3-------3-------1------|
G|2-------2---2-------2---2------|--------2-------2-------2------|
D|0------------------------------|2---------------4--------------|
A|-------------------------------|------------------------0------|
E|-------------------------------|-------------------------------|


G
e|3------ 3------ 3---3-- 3---3--|3------ 3------ 3------ 3------|
B|3-------3-------3---3---3---3--|3-------3-------3-------3------|
G|0-------0-------0---0---0---0--|0-------0-------0-------0------|
D|0-------0-------0---0---0---0--|0-------0-------0-------0------|
A|2-------2-------2---2---2---2--|2-------2-------2-------2------|
E|3-------3-------3---3---3---3--|3-------3-------3-------3------|
I don't want


e|3------ 3------ 3---3-- 3---3--|3------ 3------ 3---3-- 3---3--|
B|3-------3-------3---3---3---3--|3-------3-------3---3---3---3--|
G|0-------0-------0---0---0---0--|0-------0-------0---0---0---0--|
D|0-------0-------0---0---0---0--|0-------0-------0---0---0---0--|
A|2-------2-------2---2---2---2--|2-------2-------2---2---2---2--|
E|3-------3-------3---3---3---3--|3-------3-------3---3---3---3--|
to spoil the party so I'll go


e|3------ 3------ 3---3-- 3---3--|3------ 3------ 3------ 3------|
B|3-------3-------3---3---3---3--|3-------3-------3-------3------|
G|0-------0-------0---0---0---0--|0-------0-------0-------0------|
D|0-------0-------0---0---0---0--|0-------0-------0-------0------|
A|2-------2-------2---2---2---2--|2-------2-------2-------2------|
E|3-------3-------3---3---3---3--|3-------3-------3-------3------|
I Would hate


e|3------ 3------ 3---3-- 3---3--|3------ 3------ 3---3-- 3------|
B|3-------3-------3---3---3---3--|3-------3-------3---3---3------|
G|0-------0-------0---0---0---0--|0-------0-------0---0---0------|
D|0-------0-------0---0---0---0--|0-------0-------0---0---0------|
A|2-------2-------2---2---2---2--|2-------2-------2---2---2------|
E|3-------3-------3---3---3---3--|3-------3-------3---3---3------|
my dissa.......point.......ment to show

D
e|2------ 2------ 2---2-- 2---2--|2------ 2---2-- 2---2-- 2------|
B|3-------3-------3---3---3---3--|3-------3---3---3---3---3------|
G|2-------2-------2---2---2---2--|2-------2---2---2---2---2------|
D|0-------0-------0---0---0---0--|0-------0---0---0---0---0------|
A|-------------------------------|-------------------------------|
E|-------------------------------|-------------------------------|
There's
e|------- ------- ------- -------|------- ------- ------- -------|
B|--------6-----------6----------|6-----------6-------6----------|
G|--------5-----------5----------|5-----------5-------5----------|
D|--------4-----------4----------|4-----------4-------4----------|
A|5------------------------------|0------------------------------|
E|-------------------------------|-------------------------------|



Em B7
e|0------ 0---0-- 0---0-- 0---0--|2------ 2---2-- ----2-- 2---0--|
B|0-------0---0---0---0---0---0--|0-------0---0-------0---0---1--|
G|0-------0---0---0---0---0---0--|2-------2---2-------2---2---2--|
D|2-------2---2---2---2---2---2--|1-------1---1-------1---1---2--|
A|2-------2---2---2---2---2---2--|2-------2---2-------2---2---0--|
E|0-------0---0---0---0---0---0--|-------------------------------|
nothing for me here So

Am7 D
e|0------ 0------ 0---0-- 0---0--|2------ 2------ 2---2-- 2------|
B|1-------1-------1---1---1---1--|3-------3-------3---3---3------|
G|2-------2-------2---2---2---2--|2-------2-------2---2---2------|
D|2-------2-------2---2---2---2--|0-------0-------0---0---0------|
A|0-------0-------0---0---0---0--|-------------------------------|
E|-------------------------------|-------------------------------|
I will dissap......pear If she turns

G F9
e|3------ 3------ 3---3-- 3------|3------ 3------ 3---3-- 3------|
B|3-------3-------3---3---3------|1-------1-------1---1---1------|
G|0-------0-------0---0---0------|2-------2-------2---2---2------|
D|0-------0-------0---0---0------|1-------1-------1---1---1------|
A|2-------2-------2---2---2------|3-------3-------3---3---3------|
E|3-------3-------3---3---3------|1-------1-------1---1---1------|
up while I'm gone, please, let me know

G
e|3------ 3---3-- 3---3-- 3---3--|3------ 3------ 3---3-- 3------|
B|3-------3---3---3---3---3---3--|3-------3-------3---3---3------|
G|0-------0---0---0---0---0---0--|0-------0-------0---0---0------|
D|0-------0---0---0---0---0---0--|0-------0-------0---0---0------|
A|2-------2---2---2---2---2---2--|2-------2-------2---2---2------|
E|3-------3---3---3---3---3---3--|3-------3-------3---3---3------|
I


e|3------ 3------ ----3-- 3---3--|3------ 3---3-- 3---3-- 3------|
B|3-------3-----------3---3---3--|3-------3---3---3---3---3------|
G|0-------0-----------0---0---0--|0-------0---0---0---0---0------|
D|0-------0-----------0---0---0--|0-------0---0---0---0---0------|
A|2-------2-----------2---2---2--|2-------2---2---2---2---2------|
E|3-------3-----------3---3---3--|3-------3---3---3---3---3------|
had a drink or two and I don't care


e|3------ 3------ 3---3-- 3---3--|3------ 3------ 3------ 3------|
B|3-------3-------3---3---3---3--|3-------3-------3-------3------|
G|0-------0-------0---0---0---0--|0-------0-------0-------0------|
D|0-------0-------0---0---0---0--|0-------0-------0-------0------|
A|2-------2-------2---2---2---2--|2-------2-------2-------2------|
E|3-------3-------3---3---3---3--|3-------3-------3-------3------|
there's no


e|3------ 3---3-- 3---3-- 3---3--|3------ 3---3-- 3---3-- 3------|
B|3-------3---3---3---3---3---3--|3-------3---3---3---3---3------|
G|0-------0---0---0---0---0---0--|0-------0---0---0---0---0------|
D|0-------0---0---0---0---0---0--|0-------0---0---0---0---0------|
A|2-------2---2---2---2---2---2--|2-------2---2---2---2---2------|
E|3-------3---3---3---3---3---3--|3-------3---3---3---3---3------|
fun in what I do If she's not

D
e|2------ 2---2-- 2---2-- ----2--|2------ 2------ 2---2-- 2------|
B|3-------3---3---3---3-------3--|3-------3-------3---3---3------|
G|2-------2---2---2---2-------2--|2-------2-------2---2---2------|
D|0-------0---0---0---0-------0--|0-------0-------0---0---0------|
A|-------------------------------|-------------------------------|
E|-------------------------------|-------------------------------|
there I
e|------- ------- ------- -------|------- ------- ------- -------|
B|--------6-----------6----------|6-----------6-------6----------|
G|--------5-----------5----------|5-----------5-------5----------|
D|--------4-----------4----------|4-----------4-------4----------|
A|5------------------------------|0------------------------------|
E|-------------------------------|-------------------------------|


Em B7
e|0------ 0---0-- 0---0-- 0------|2------ 2---2-- 2---2-- 2---0--|
B|0-------0---0---0---0---0------|0-------0---0---0---0---0---1--|
G|0-------0---0---0---0---0------|2-------2---2---2---2---2---2--|
D|2-------2---2---2---2---2------|1-------1---1---1---1---1---2--|
A|2-------2---2---2---2---2------|2-------2---2---2---2---2---0--|
E|0-------0---0---0---0---0------|-------------------------------|
wonder what went wrong I've

C D
e|0------ 0---0-- 0---0-- 0---0--|2------ 2---2-- 2---2-- 2------|
B|1-------1---1---1---1---1---1--|3-------3---3---3---3---3------|
G|2-------2---2---2---2---2---2--|2-------2---2---2---2---2------|
D|2-------2---2---2---2---2---2--|0-------0---0---0---0---0------|
A|0-------0---0---0---0---0---0--|-------------------------------|
E|-------------------------------|-------------------------------|
waited far too long I

G F9
e|3------ 3------ 3---3-- 3------|3------ 3---3-- 3---3-- 3---3--|
B|3-------3-------3---3---3------|1-------1---1---1---1---1---1--|
G|0-------0-------0---0---0------|2-------2---2---2---2---2---2--|
D|0-------0-------0---0---0------|1-------1---1---1---1---1---1--|
A|2-------2-------2---2---2------|3-------3---3---3---3---3---3--|
E|3-------3-------3---3---3------|1-------1---1---1---1---1---1--|
Think I'll take a walk and look for her

G
e|3------ 3---3-- 3---3-- 3---3--|3------ 3------ 3------ 3------|
B|3-------3---3---3---3---3---3--|3-------3-------3-------3------|
G|0-------0---0---0---0---0---0--|0-------0-------0-------0------|
D|0-------0---0---0---0---0---0--|0-------0-------0-------0------|
A|2-------2---2---2---2---2---2--|2-------2-------2-------2------|
E|3-------3---3---3---3---3---3--|3-------3-------3-------3------|
Though to.....


e|3------ 3------ 3------ 3------|3------ 3---3-- 3---3-- 3------|
B|3-------3-------3-------3------|3-------3---3---3---3---3------|
G|0-------0-------0-------0------|0-------0---0---0---0---0------|
D|0-------0-------0-------0------|0-------0---0---0---0---0------|
A|2-------2-------2-------2------|2-------2---2---2---2---2------|
E|3-------3-------3-------3------|3-------3---3---3---3---3------|
night she's make me sad


Em A
e|0------ 0---0-- ----0-- 0------|0------ 0---0-- ----0-- 0------|
B|0-------0---0-------0---0------|2-------2---2-------2---2------|
G|0-------0---0-------0---0------|2-------2---2-------2---2------|
D|2-------2---2-------2---2------|2-------2---2-------2---2------|
A|2-------2---2-------2---2------|0-------0---0-------0---0------|
E|0-------0---0-------0---0------|-------------------------------|
I still

C D
e|0------ 0---0-- 0---0-- 0------|2------ 2---2-- 2---2-- 2------|
B|1-------1---1---1---1---1------|3-------3---3---3---3---3------|
G|0-------0---0---0---0---0------|2-------2---2---2---2---2------|
D|2-------2---2---2---2---2------|0-------0---0---0---0---0------|
A|3-------3---3---3---3---3------|-------------------------------|
E|3-------3---3---3---3---3------|-------------------------------|
love her If I find

G
e|3------ 3------ 3------ 3------|3------ 3---3-- 3---3-- 3------|
B|3-------3-------3-------3------|3-------3---3---3---3---3------|
G|0-------0-------0-------0------|0-------0---0---0---0---0------|
D|0-------0-------0-------0------|0-------0---0---0---0---0------|
A|2-------2-------2-------2------|2-------2---2---2---2---2------|
E|3-------3-------3-------3------|3-------3---3---3---3---3------|
her I'll be glad

Em A
e|0------ 0---0-- ----0-- 0------|0------ 0---0-- ----0-- 0------|
B|0-------0---0-------0---0------|2-------2---2-------2---2------|
G|0-------0---0-------0---0------|2-------2---2-------2---2------|
D|2-------2---2-------2---2------|2-------2---2-------2---2------|
A|2-------2---2-------2---2------|0-------0---0-------0---0------|
E|0-------0---0-------0---0------|-------------------------------|
I still

C D
e|0------ 0---0-- ----0-- 0------|2------ 2---2-- 2---2-- 2---2--|
B|1-------1---1-------1---1------|3-------3---3---3---3---3---3--|
G|0-------0---0-------0---0------|2-------2---2---2---2---2---2--|
D|2-------2---2-------2---2------|0-------0---0---0---0---0---0--|
A|3-------3---3-------3---3------|-------------------------------|
E|3-------3---3-------3---3------|-------------------------------|
love her I don't want

G
e|3------ 3------ 3------ 3------|3------ 3------ 3------ 3------|
B|3-------3-------3-------3------|3-------3-------3-------3------|
G|0-------0-------0-------0------|0-------0-------0-------0------|
D|0-------0-------0-------0------|0-------0-------0-------0------|
A|2-------2-------2-------2------|2-------2-------2-------2------|
E|3-------3-------3-------3------|3-------3-------3-------3------|
to spoil the party so I'll go


e|3------ 3---3-- 3------ 3---3--|3------ 3------ 3------ 3------|
B|3-------3---3---3-------3---3--|3-------3-------3-------3------|
G|0-------0---0---0-------0---0--|0-------0-------0-------0------|
D|0-------0---0---0-------0---0--|0-------0-------0-------0------|
A|2-------2---2---2-------2---2--|2-------2-------2-------2------|
E|3-------3---3---3-------3---3--|3-------3-------3-------3------|
I Would hate


e|3------ 3------ 3---3-- 3------|3------ 3------ 3---3-- 3------|
B|3-------3-------3---3---3------|3-------3-------3---3---3------|
G|0-------0-------0---0---0------|0-------0-------0---0---0------|
D|0-------0-------0---0---0------|0-------0-------0---0---0------|
A|2-------2-------2---2---2------|2-------2-------2---2---2------|
E|3-------3-------3---3---3------|3-------3-------3---3---3------|
my dissa.......point.......ment to show

D
e|2------ 2---2-- ----2-- 2---2--|2------ 2------ 2---2-- 2------|
B|3-------3---3-------3---3---3--|3-------3-------3---3---3------|
G|2-------2---2-------2---2---2--|2-------2-------2---2---2------|
D|0-------0---0-------0---0---0--|0-------0-------0---0---0------|
A|-------------------------------|-------------------------------|
E|-------------------------------|-------------------------------|
There's
e|------- ------- ------- -------|------- ------- ------- -------|
B|--------6-----------6----------|6-----------6-------6----------|
G|--------5-----------5----------|5-----------5-------5----------|
D|--------4-----------4----------|4-----------4-------4----------|
A|5------------------------------|0------------------------------|
E|-------------------------------|-------------------------------|

Em B7
e|0------ 0---0-- 0---0-- 0---0--|2------ 2------ 2---2-- 2---2--|
B|0-------0---0---0---0---0---0--|0-------0-------0---0---0---0--|
G|0-------0---0---0---0---0---0--|2-------2-------2---2---2---2--|
D|2-------2---2---2---2---2---2--|1-------1-------1---1---1---1--|
A|2-------2---2---2---2---2---2--|2-------2-------2---2---2---2--|
E|0-------0---0---0---0---0---0--|-------------------------------|
nothing for me here So

Am D
e|0------ 0------ 0---0-- 0------|2------ 2------ 2---2-- 2------|
B|1-------1-------1---1---1------|3-------3-------3---3---3------|
G|2-------2-------2---2---2------|2-------2-------2---2---2------|
D|2-------2-------2---2---2------|0-------0-------0---0---0------|
A|0-------0-------0---0---0------|-------------------------------|
E|-------------------------------|-------------------------------|
I will dissap......pear If she turns

G F9
e|3------ 3------ 3---3-- 3------|3------ 3------ 3---3-- 3------|
B|3-------3-------3---3---3------|1-------1-------1---1---1------|
G|0-------0-------0---0---0------|2-------2-------2---2---2------|
D|0-------0-------0---0---0------|1-------1-------1---1---1------|
A|2-------2-------2---2---2------|3-------3-------3---3---3------|
E|3-------3-------3---3---3------|1-------1-------1---1---1------|
up while I'm gone, please, let me know


Solo
G
e|3------ 3---3-- 3---3-- 3---3--|3------ 3------ 3------ 3------|
B|3-------3---3---3---3---3---3--|3-------3-------3-------3------|
G|0-------0---0---0---0---0---0--|0-------0-------0-------0------|
D|0-------0---0---0---0---0---0--|0-------0-------0-------0------|
A|2-------2---2---2---2---2---2--|2-------2-------2-------2------|
E|3-------3---3---3---3---3---3--|3-------3-------3-------3------|

e|------- ------- ------- -------|------- ------- ------- -------|
B|-------------------------------|--------0-------1-------2------|
G|-------------------------------|--------0-------2-------3------|
D|-------------------------------|-------------------------------|
A|-------------------------------|-------------------------------|
E|-------------------------------|-------------------------------|



e|3------ 3------ 3---3-- 3---3--|3------ 3---3-- 3---3-- 3------|
B|3-------3-------3---3---3---3--|3-------3---3---3---3---3------|
G|0-------0-------0---0---0---0--|0-------0---0---0---0---0------|
D|0-------0-------0---0---0---0--|0-------0---0---0---0---0------|
A|2-------2-------2---2---2---2--|2-------2---2---2---2---2------|
E|3-------3-------3---3---3---3--|3-------3---3---3---3---3------|

e|------- ------- ------- -------|------- ------- ------- -------|
B|--------3-----------3----------|5-------3-------0-------1------|
G|--------4-----------4----------|5-------4-------0-------2------|
D|0------------------------------|-------------------------------|
A|-------------------------------|-------------------------------|
E|-------------------------------|-------------------------------|



e|3------ 3------ 3---3-- 3---3--|3------ 3------ 3---3-- 3------|
B|3-------3-------3---3---3---3--|3-------3-------3---3---3------|
G|0-------0-------0---0---0---0--|0-------0-------0---0---0------|
D|0-------0-------0---0---0---0--|0-------0-------0---0---0------|
A|2-------2-------2---2---2---2--|2-------2-------2---2---2------|
E|3-------3-------3---3---3---3--|3-------3-------3---3---3------|

e|------- ------- ------- -------|------- ------- ------- -------|
B|--------3-P-0-------3-P-0------|3-------0-------1-------2------|
G|0------------------------------|--------0-------2-------3------|
D|-------------------------------|-------------------------------|
A|-------------------------------|-------------------------------|
E|-------------------------------|-------------------------------|



e|3------ 3---3-- 3------ 3------|3------ 3---3-- 3------ 3------|
B|3-------3---3---3-------3------|3-------3---3---3-------3------|
G|0-------0---0---0-------0------|0-------0---0---0-------0------|
D|0-------0---0---0-------0------|0-------0---0---0-------0------|
A|2-------2---2---2-------2------|2-------2---2---2-------2------|
E|3-------3---3---3-------3------|3-------3---3---3-------3------|

e|------- ------- ------- -------|------- ------- ------- -------|
B|--------3-----------3----------|5-------3----------------------|
G|0-------4-----------4----------|5-------4-------0-------2------|
D|-------------------------------|-------------------------------|
A|-------------------------------|-------------------------------|
E|-------------------------------|-------------------------------|


D
e|2------ 2---2-- 2------ 2------|2------ 2------ 2------ 2------|
B|3-------3---3---3-------3------|3-------3-------3-------3------|
G|2-------2---2---2-------2------|2-------2-------2-------2------|
D|0-------0---0---0-------0------|0-------0-------0-------0------|
A|-------------------------------|-------------------------------|
E|-------------------------------|-------------------------------|

e|------- 0------ ----0-- -------|1------ ----1-- ----1-- -------|
B|--------1-----------1----------|1-----------1-------1----------|
G|-------------------------------|-------------------------------|
D|4------------------------------|-------------------------------|
A|-------------------------------|-------------------------------|
E|-------------------------------|-------------------------------|


Em B7
e|0------ 0---0-- 0---0-- 0------|2------ 2---2-- 2---2-- 2------|
B|0-------0---0---0---0---0------|0-------0---0---0---0---0------|
G|0-------0---0---0---0---0------|2-------2---2---2---2---2------|
D|2-------2---2---2---2---2------|1-------1---1---1---1---1------|
A|2-------2---2---2---2---2------|2-------2---2---2---2---2------|
E|0-------0---0---0---0---0------|-------------------------------|

e|------- ------- ------- -------|------- ------- ------- -------|
B|--------0-----------0----------|0-----------0---------------0--|
G|------------0-----------0------|-------------------------------|
D|2------------------------------|-------------------------------|
A|-------------------------------|-------------------------------|
E|-------------------------------|-------------------------------|


Am D
e|0------ 0------ 0---0-- 0------|2------ 2---2-- 2---2-- 2------|
B|1-------1-------1---1---1------|3-------3---3---3---3---3------|
G|2-------2-------2---2---2------|2-------2---2---2---2---2------|
D|2-------2-------2---2---2------|0-------0---0---0---0---0------|
A|0-------0-------0---0---0------|-------------------------------|
E|-------------------------------|-------------------------------|

e|------- ------- ------- -------|------- ------- ------- -------|
B|1-------1-----------1----------|3-------0-------1-------2------|
G|------------2-----------2------|4-------0-------2-------3------|
D|-------------------------------|-------------------------------|
A|-------------------------------|-------------------------------|
E|-------------------------------|-------------------------------|


G F9
e|3------ 3------ 3---3-- 3------|3------ 3---3-- 3---3-- 3---3--|
B|3-------3-------3---3---3------|1-------1---1---1---1---1---1--|
G|0-------0-------0---0---0------|2-------2---2---2---2---2---2--|
D|0-------0-------0---0---0------|1-------1---1---1---1---1---1--|
A|2-------2-------2---2---2------|3-------3---3---3---3---3---3--|
E|3-------3-------3---3---3------|1-------1---1---1---1---1---1--|

e|------- ------- ------- -------|------- ------- ------- -------|
B|--------3-----------3----------|5-------3----------------------|
G|--------4-----------4----------|5-------4-------0-------2------|
D|-------------------------------|-------------------------------|
A|-------------------------------|-------------------------------|
E|-------------------------------|-------------------------------|


G
e|3------ 3------ 3---3-- 3---3--|3------ 3------ 3------ 3------|
B|3-------3-------3---3---3---3--|3-------3-------3-------3------|
G|0-------0-------0---0---0---0--|0-------0-------0-------0------|
D|0-------0-------0---0---0---0--|0-------0-------0-------0------|
A|2-------2-------2---2---2---2--|2-------2-------2-------2------|
E|3-------3-------3---3---3---3--|3-------3-------3-------3------|
Though to.....
e|------- ------- ------- -------|3------ ------- ------- -------|
B|--------3-P-0-------3-P-0------|-------------------------------|
G|0------------------------------|-------------------------------|
D|-------------------------------|-------------------------------|
A|-------------------------------|-------------------------------|
E|-------------------------------|-------------------------------|



e|3------ 3------ 3---3-- 3------|3------ 3---3-- 3---3-- ----3--|
B|3-------3-------3---3---3------|3-------3---3---3---3-------3--|
G|0-------0-------0---0---0------|0-------0---0---0---0-------0--|
D|0-------0-------0---0---0------|0-------0---0---0---0-------0--|
A|2-------2-------2---2---2------|2-------2---2---2---2-------2--|
E|3-------3-------3---3---3------|3-------3---3---3---3-------3--|
night she's make me sad


Em A
e|0------ 0---0-- ----0-- 0------|0------ ----0-- ----0-- 0------|
B|0-------0---0-------0---0------|2-----------2-------2---2------|
G|0-------0---0-------0---0------|2-----------2-------2---2------|
D|2-------2---2-------2---2------|2-----------2-------2---2------|
A|2-------2---2-------2---2------|0-----------0-------0---0------|
E|0-------0---0-------0---0------|-------------------------------|
I still

C D
e|0------ 0---0-- ----0-- 0------|2------ 2---2-- ----2-- 2------|
B|1-------1---1-------1---1------|3-------3---3-------3---3------|
G|0-------0---0-------0---0------|2-------2---2-------2---2------|
D|2-------2---2-------2---2------|0-------0---0-------0---0------|
A|3-------3---3-------3---3------|-------------------------------|
E|3-------3---3-------3---3------|-------------------------------|
love her If I find

G
e|3------ 3------ 3---3-- 3---3--|3------ 3------ 3---3-- 3---3--|
B|3-------3-------3---3---3---3--|3-------3-------3---3---3---3--|
G|0-------0-------0---0---0---0--|0-------0-------0---0---0---0--|
D|0-------0-------0---0---0---0--|0-------0-------0---0---0---0--|
A|2-------2-------2---2---2---2--|2-------2-------2---2---2---2--|
E|3-------3-------3---3---3---3--|3-------3-------3---3---3---3--|
her I'll be glad

Em A
e|0------ 0---0-- ----0-- 0------|0------ 0---0-- ----0-- 0------|
B|0-------0---0-------0---0------|2-------2---2-------2---2------|
G|0-------0---0-------0---0------|2-------2---2-------2---2------|
D|2-------2---2-------2---2------|2-------2---2-------2---2------|
A|2-------2---2-------2---2------|0-------0---0-------0---0------|
E|0-------0---0-------0---0------|-------------------------------|
I still

C D
e|0------ 0---0-- ----0-- 0------|2------ 2---2-- 2---2-- 2------|
B|1-------1---1-------1---1------|3-------3---3---3---3---3------|
G|0-------0---0-------0---0------|2-------2---2---2---2---2------|
D|2-------2---2-------2---2------|0-------0---0---0---0---0------|
A|3-------3---3-------3---3------|-------------------------------|
E|3-------3---3-------3---3------|-------------------------------|
love her Though I've

G
e|3------ 3------ 3---3-- 3------|3------ 3------ 3------ 3------|
B|3-------3-------3---3---3------|3-------3-------3-------3------|
G|0-------0-------0---0---0------|0-------0-------0-------0------|
D|0-------0-------0---0---0------|0-------0-------0-------0------|
A|2-------2-------2---2---2------|2-------2-------2-------2------|
E|3-------3-------3---3---3------|3-------3-------3-------3------|
had a drink or two and I don't care


e|3------ 3---3-- 3---3-- 3---3--|3------ 3------ 3------ 3------|
B|3-------3---3---3---3---3---3--|3-------3-------3-------3------|
G|0-------0---0---0---0---0---0--|0-------0-------0-------0------|
D|0-------0---0---0---0---0---0--|0-------0-------0-------0------|
A|2-------2---2---2---2---2---2--|2-------2-------2-------2------|
E|3-------3---3---3---3---3---3--|3-------3-------3-------3------|
there's no


e|3------ 3------ 3---3-- 3---3--|3------ 3---3-- 3---3-- 3------|
B|3-------3-------3---3---3---3--|3-------3---3---3---3---3------|
G|0-------0-------0---0---0---0--|0-------0---0---0---0---0------|
D|0-------0-------0---0---0---0--|0-------0---0---0---0---0------|
A|2-------2-------2---2---2---2--|2-------2---2---2---2---2------|
E|3-------3-------3---3---3---3--|3-------3---3---3---3---3------|
fun in what I do If she's not

D
e|2------ 2------ 2---2-- 2---2--|2------ 2---2-- 2---2-- 2------|
B|3-------3-------3---3---3---3--|3-------3---3---3---3---3------|
G|2-------2-------2---2---2---2--|2-------2---2---2---2---2------|
D|0-------0-------0---0---0---0--|0-------0---0---0---0---0------|
A|-------------------------------|-------------------------------|
E|-------------------------------|-------------------------------|
there I
e|------- ------- ------- -------|------- ------- ------- -------|
B|--------6-----------6----------|6-----------6-------6----------|
G|--------5-----------5----------|5-----------5-------5----------|
D|--------4-----------4----------|4-----------4-------4----------|
A|5------------------------------|0------------------------------|
E|-------------------------------|-------------------------------|



Em B7
e|0------ 0------ 0---0-- 0------|2------ 2------ 2---2-- 2------|
B|0-------0-------0---0---0------|0-------0-------0---0---0------|
G|0-------0-------0---0---0------|2-------2-------2---2---2------|
D|2-------2-------2---2---2------|1-------1-------1---1---1------|
A|2-------2-------2---2---2------|2-------2-------2---2---2------|
E|0-------0-------0---0---0------|-------------------------------|
wonder what went wrong I've

Am D
e|0------ 0------ 0---0-- 0------|2------ 2------ 2---2-- 2------|
B|1-------1-------1---1---1------|3-------3-------3---3---3------|
G|2-------2-------2---2---2------|2-------2-------2---2---2------|
D|2-------2-------2---2---2------|0-------0-------0---0---0------|
A|0-------0-------0---0---0------|-------------------------------|
E|-------------------------------|-------------------------------|
waited far too long I

G F9
e|3------ 3------ 3---3-- 3------|3------ 3------ 3---3-- 3------|
B|3-------3-------3---3---3------|1-------1-------1---1---1------|
G|0-------0-------0---0---0------|2-------2-------2---2---2------|
D|0-------0-------0---0---0------|1-------1-------1---1---1------|
A|2-------2-------2---2---2------|3-------3-------3---3---3------|
E|3-------3-------3---3---3------|1-------1-------1---1---1------|
Think I'll take a walk and look for her

G
e|3------ 3------ 3---3-- 3---3--|3------ 3------ 3---3-- 3------|
B|3-------3-------3---3---3---3--|3-------3-------3---3---3------|
G|0-------0-------0---0---0---0--|0-------0-------0---0---0------|
D|0-------0-------0---0---0---0--|0-------0-------0---0---0------|
A|2-------2-------2---2---2---2--|2-------2-------2---2---2------|
E|3-------3-------3---3---3---3--|3-------3-------3---3---3------|

e|------- ------- ------- -------|------- ------- ------- -------|
B|-------------------------------|-----------------------------2/|
G|-------------------------------|-------------------------------|
D|-------------------------------|-------------------------------|
A|-------------------------------|-------------------------------|
E|-------------------------------|-------------------------------|



e|3------ 3---3-- 3---3-- 3------|------- 3------ ------- 3------|
B|3-------3---3---3---3---3------|--------3---------------3------|
G|0-------0---0---0---0---0------|--------0---------------0------|
D|0-------0---0---0---0---0------|--------0---------------0------|
A|2-------2---2---2---2---2------|--------2---------------2------|
E|3-------3---3---3---3---3------|--------3---------------3------|

e|------- ------- ------- -------|------- ------- ------- -------|
B|3------------------------------|----------------3-----------3-\|
G|----------------------------3-/|4------------------------------|
D|-------------------------------|-------------------------------|
A|-------------------------------|-------------------------------|
E|-------------------------------|-------------------------------|


Dsus4
e|------- 3---3-- 3---3-- 3------|------- 3------ ------- 3------|
B|--------3---3---3---3---3------|--------3---------------3------|
G|--------2---2---2---2---2------|--------2---------------2------|
D|--------0---0---0---0---0------|--------0---------------0------|
A|-------------------------------|-------------------------------|
E|-------------------------------|-------------------------------|

e|------- ------- ------- -------|------- ------- ------- -------|
B|1------------------------------|----------------1--------------|
G|----------------------------1-/|2---------------------------1-/|
D|-------------------------------|-------------------------------|
A|-------------------------------|-------------------------------|
E|-------------------------------|-------------------------------|


D
e|------- 2---2-- 2---2-- 2------|------- 2------ ------- -------|
B|--------3---3---3---3---3------|--------3---------------3------|
G|--------2---2---2---2---2------|--------2---------------2------|
D|--------0---0---0---0---0------|--------0---------------0------|
A|-------------------------------|-------------------------------|
E|-------------------------------|-------------------------------|

e|------- ------- ------- -------|2------ ------- 2------ -------|
B|-------------------------------|3---------------1--------------|
G|2------------------------------|-------------------------------|
D|-------------------------------|-------------------------------|
A|-------------------------------|-------------------------------|
E|-------------------------------|-------------------------------|

(.
G
e|3------ ------- ------- -------|------- ------- ------- -------|
B|3------------------------------|-------------------------------|
G|0------------------------------|-------------------------------|
D|0------------------------------|-------------------------------|
A|2------------------------------|-------------------------------|
E|3------------------------------|-------------------------------|

e|3------ ------- ------- -------|------- ------- ------- -------|
B|-------------------------------|-------------------------------|
G|4------------------------------|-------------------------------|
D|-------------------------------|-------------------------------|
A|-------------------------------|-------------------------------|
E|-------------------------------|-------------------------------|








B Bend
R Release
/ slide up
\ slide down
H hammer-on
P pull-off
~ vibrato
+ harmonic
x Mute note
. - play note like a dot in standard notation
^ - ties two notes together
(. Pause

pjvill

Submitted by pjvill at Sat 10 Dec, 2005 4:49 am

Author: ?
Composer: ?
Publisher: ?
Language: English

Reactions

CommonCrawl [Bot]

Follow Muzikum