The Beatles

The Beatles
I Call Your Name Ver 2 (Guitar tab)

-----------------------------------------------------------------

THE BEATLES - I CALL YOUR NAME (Lennon/McCartney) Released on
June 1964. (Long Tall Sally EP.


-----------------------------------------------------------------

Tabbed by:PJVillanueva



4/4 time



Intro

e|------- ------- ------- -------|------- ------- ------- -------|
B|-------------------------------|-------------------------------|
G|-------------------------------|-------------------------------|
D|----------------0---2------4---|-------------------------------|
A|--------2----------------------|-------------------------------|
E|-------------------------------|-------------------------------|
F#7 /


e|------- ------- ------- -------|------- ------- ------- -------|
B|-------------------------------|-------------------------------|
G|-------------------------------|-------------------------------|
D|---5-------2----5---2----------|2-------------2P0--------------|
A|------------------------5---2--|--------------------2---0---2--|
E|-------------------------------|-------------------------------|
1 B7 E E7


e|------- ------- ------- -------|
B|-------------------------------|
G|-------------------------------|
D|1------------------------------|
A|-------------------------------|
E|-------------------------------|
2 B7







E7 C#7
I call your name, but you're not there

F#7 1 B7
Was I to blame for being unfair

E7 C#7
Oh I can't sleep at night since you've been gone

F#7 A E7
I never weep at night, I can't go on



A7
Don't you know I can't take it

C#m
I don't know who can

F#7
I'm not going to make it

C7 2 B7
I'm not that kind of man.



E7 C#7
Oh I can't sleep at night, but just the same

F#7 A
I never weep at night. I call your name







Solo

4/4 time 12/8 time

e|-----12 ------- ------- -------|------ ------ ------ ------|
B|--------8--10---10-B-11-10-P-8-|8-------------8---10----10B|
G|----9-------------------------9|9------9-------------------|
D|-------------------------------|---------------------------|
A|-------------------------------|---------------------------|
E|-------------------------------|---------------------------|



e|------ 7----- ------ ------|------ ------ ------ ------|
B|11------------10B11-8------|-------9-------------------|
G|----------------------9---9/10------------8-/-10------8/
D|---------------------------|---------------------------|
A|---------------------------|---------------------------|
E|---------------------------|---------------------------|




e|------ ------ ------ ------|------ ------ ------ ------|
B|-----9-------------9-------|-------7------------------7|
G|10-----10-\-8-8/10---------|-----9------9--------------|
D|---------------------------|--------------10\9-8-------|
A|---------------------------|---------------------10----|
E|---------------------------|---------------------------|




e|------ ------ ------ -----0|------ ------ ------ ------|
B|---------------------------|-----0---------------------|
G|---------------------------|-------------4-\-2-0-------|
D|-------10-/-9-8------------|----------------------0----|
A|---------------------------|---------------------------|
E|---------------------------|---------------------------|




e|------ ------ ------ ------|
B|---------------------------|
G|---------------------------|
D|2--------------------------|
A|---------------------------|
E|---------------------------|







Guitar riff

4/4 time

e|------- ------- ------- -------|------- ------- ------- -------|
B|-------------------------------|-------------------------------|
G|-------------------------------|-------------------------------|
D|----------------2---2----------|----------------2---2----------|
A|0---0---3---4-----------3---4--|0---0---3---4-----------3---4--|
E|-------------------------------|-------------------------------|



e|------- ------- ------- -------|------- ------- ------- -------|
B|-------------------------------|-------------------------------|
G|-------------------------------|-------------------------------|
D|----------------6---6----------|----------------6---6----------|
A|4---4---6---7-----------6---7--|4---4---6---7-----------6---7--|
E|-------------------------------|-------------------------------|



e|------- ------- ------- -------|------- ------- ------- -------|
B|-------------------------------|-------------------------------|
G|-------------------------------|-------------------------------|
D|-------------------------------|-------------------------------|
A|--------0---1---4---4---0---1--|--------0---1---4---4---0---1--|
E|2---2--------------------------|2---2--------------------------|



e|------- ------- ------- -------|------- ------- ------- -------|
B|-------------------------------|-------------------------------|
G|----------------0---0----------|-------------------------------|
D|--------1---2-----------1---2--|--------0---1---4---4---0---1--|
A|3---3--------------------------|2---2--------------------------|
E|-------------------------------|-------------------------------|







Chords:

F#7 242352
1 B7 7 9 7 8 10 7
2 B7 x2120x
E 022100
E7 076750
C#7 x4342x
A 577655
A7 575685
C#m x46654
C7 x3231x






B Bend
R Release
/ Slide up
\ Slide down
H Hammer-on
P Pull-off
~ Vibrato
+ Harmonic
x Mute note
. Play note like a dot in standard notation
^ Ties two notes together
(. Pause

pjvill

Submitted by pjvill at Sat 10 Dec, 2005 4:48 am

Author: ?
Composer: ?
Publisher: ?
Language: English

Reactions

CommonCrawl [Bot]

Follow Muzikum