The Beatles

The Beatles
Honey Pie (Guitar tab)

-------------------------------------------------------------------

THE BEATLES - HONEY PIE (Lennon/McCartney) From the White album.
Released on November 22nd 1968.


-------------------------------------------------------------------


Tabbed by PJVillanueva





She was a working girl
North of England way
Now she's hit the big time
In the U.S.A.
And if she could only hear me
This is what I'd say.

Honey pie you are making me crazy
I'm in love but I'm lazy
So won't you please come home.

Oh honey pie my position is tragic
Come and show me the magic
of your Hollywood song.

You became a legend of the silver screen
And now the thought of meeting you
Makes me weak in the knee.

Oh honey pie you are driving me frantic
Sail across the Atlantic
To be where you belong.

Will the wind that blew her boat
Across the sea
Kindly send her sailing back to me.

Honey pie you are making me crazy
I'm in love but I'm lazy
So won't you please come home.





(.

e|------------------------5--7---5----------------|
B|------5-----7-----8-----5--5---5----------------|
G|4-----------6-----------5--5---5----------------|
D|2-----------7-----------7-----------------------|
A|------------------------------------------------|
E|------------------------------------------------|
She was a working girl
e|-----------------------------------15\----------|
B|------------------------------------------------|
G|------------------------------------------------|
D|------------------------------------------------|
A|------------------------------------------------|
E|------------------------------------------------|

(.
e|7---8-------5--7-------------3------------------|
B|6-----------5--5----3-------3-------------------|
G|6-----------5--5-----------4--------------------|
D|8-----------7-------------5---------------------|
A|------------------------------------------------|
E|------------------------3-----------------------|
North of England way
e|----------------------------7H8P7--/-15---------|
B|------------------------------------------------|
G|------------------------------------------------|
D|-------------------------------------------14-12|
A|-----------------------------------------14-----|
E|------------------------------------------------|
(.

e|-----------------------5---7---5----------------|
B|------5-----7----8-----5---5---5----------------|
G|4-----------6----------5---5---5----------------|
D|2-----------7----------7------------------------|
A|------------------------------------------------|
E|------------------------------------------------|
Now she's hit the big time + + +
e|--------------------------------12-----5H7P5H7P5|
B|----------------------------------12---5--------|
G|------------------------------------12-5--------|
D|------------------------------------------------|
A|------------------------------------------------|
E|------------------------------------------------|


(.
e|7---8-------5--7---------------3-------------7--|
B|6-----------5--5----3---------3-----------------|
G|6-----------5--5-------------4---------------7--|
D|8-----------7---------------5-------------------|
A|-------------------------2-5--------------------|
E|------------------------3-----------------------|


e|-------------------------------15-\-------------|
B|--------------------------12---15---------------|
G|-------------------------12---------------------|
D|------------------------12----------------------|
A|------------------------------------------------|
E|------------------------------------------------|
in the U S A


e|7----5---------------------------7--------------|
B|----------8--7--5------7------8-----------------|
G|7----6----6--6--6------6------6-----------------|
D|------------------------------------------------|
A|------------------------------------------------|
E|------------------------------------------------|
And If she could only hear me

(.
e|5-----------------------------------------------|
B|-----8----7----5--------3-----------------------|
G|5----5----5----5-------5-------------7-7---7--7-|
D|----------------------4--------------7-7---7--7-|
A|---------------------5---------------5----------|
E|---------------------------------------8---7--5-|
This is what I'd say
e|----------------------------0-------------------|
B|---------------------------5----/---15----------|
G|-------------------------5----------------------|
D|---------------------0-4------------------------|
A|------------------------------------------------|
E|------------------------------------------------|



G6
e|3----- 3----- 3----- 3-----|3----- 3----- 3----- 3-----|
B|5------5------5------5-----|5------5------5------5-----|
G|4------4------4------4-----|4------4------4------4-----|
D|---------------------------|---------------------------|
A|--------------5------------|--------------5------------|
E|3--------------------------|3--------------------------|
Honey pie You are making me


Eb7 E7
e|------ ------ ------ ------|------ ------ ------ ------|
B|4------4------4------4-----|5------5------5------5-----|
G|6------6------6------6-----|7------7------7------7-----|
D|5------5------5------5-----|6------6------6------6-----|
A|6--------------------------|7--------------------------|
E|--------------6------------|--------------7------------|
crazy I'm in love but I'm

A D7
e|------ ------ ------ ------|------ ------ ------ ------|
B|5------5------5------5-----|3------3------3------3-----|
G|6------6------6------6-----|5------5------5------5-----|
D|7------7------7------7-----|4------4------4------4-----|
A|--------------7------------|5--------------------------|
E|5--------------------------|--------------5------------|
lazy so won't you please come home


G Eb7 D7
e|------ ------ ------ ------|------ ------ ------ ------|
B|3------3------3------3-----|4------4------3------3-----|
G|4------4------4------4-----|6------6------5------5-----|
D|5------5------5------5-----|5------5------4------4-----|
A|--------------5------------|6-------------5------------|
E|3--------------------------|---------------------------|
Oh
e|------ ------ ------ ------|6----- ------ ------ ------|
B|---------------------8-----|8------10-----8------------|
G|-------7------9------------|8--------------------9-----|
D|-------9-------------------|---------------------------|
A|---------------------------|---------------------------|
E|---------------------------|---------------------------|



G6
e|3----- 3----- 3----- 3-----|3----- 3----- 3----- 3-----|
B|5------5------5------5-----|5------5------5------5-----|
G|4------4------4------4-----|4------4------4------4-----|
D|---------------------------|---------------------------|
A|--------------5------------|--------------5------------|
E|3--------------------------|3--------------------------|
Honey pie my position is
e|------ ------ ------ ------|------ ------ ------ 7-----|
B|8--------------------------|--------------10-----------|
G|7--------------------------|-------9-------------------|
D|9--------------------------|---------------------------|
A|---------------------------|---------------------------|
E|---------------------------|---------------------------|



Eb7 E7
e|------ ------ ------ ------|------ ------ ------ ------|
B|4------4------4------4-----|5------5------5------5-----|
G|6------6------6------6-----|7------7------7------7-----|
D|5------5------5------5-----|6------6------6------6-----|
A|6--------------------------|7--------------------------|
E|--------------6------------|--------------7------------|
tragic Come and show me the
e|6----- ----6- ------ ------|12---- ------ ------ ------|
B|8--------------------------|-9------------11-----12----|
G|8------8-------------------|-9-------------------------|
D|---------------------------|---------------------------|
A|---------------------------|---------------------------|
E|---------------------------|---------------------------|



A D7
e|------ ------ ------ ------|------ ------ ------ ------|
B|5------5------5------5-----|3------3------3------3-----|
G|6------6------6------6-----|5------5------5------5-----|
D|7------7------7------7-----|4------4------4------4-----|
A|--------------7------------|5--------------------------|
E|5--------------------------|--------------5------------|
magic of your Hollywood song
e|------ ------ ------ ------|0----- ------ ------ ------|
B|5--------------------------|1--------------------------|
G|6--------------------------|2--------------------------|
D|7--------------------------|0--------------------------|
A|---------------------------|---------------------------|
E|---------------------------|---------------------------|



G F# F
e|------ ------ ------ ------|------ ------ ------ ------|
B|3------3------3------3-----|2------2------1------1-----|
G|4------4------4------4-----|3------3------2------2-----|
D|5------5------5------------|4------4------3------3-----|
A|---------------------------|---------------------------|
E|3-------------3------------|2-------------1------------|

e|------ ------ ------ ------|------ ------ ------ 1-----|
B|--------------3------------|2-------------1------------|
G|--------------4------------|3-------------2------------|
D|--------------5------------|4-------------3------------|
A|---------------------------|---------------------------|
E|---------------------------|---------------------------|



Em D
e|------ ------ ------ ------|------ ------ ------ ------|
B|0------0------0------0-----|3------3------3------3-----|
G|0------0------0------0-----|2------2------2------2-----|
D|2------2------2------2-----|0------0------0------0-----|
A|---------------------------|---------------------------|
E|0-------------0------------|2-------------2------------|
You became a legend of the silver
e|------ ------ ------ ------|------ ------ ------ ------|
B|8--------------------------|10-------------------------|
G|9--------------------------|11-------------------------|
D|9--------------------------|11-------------------------|
A|---------------------------|---------------------------|
E|---------------------------|---------------------------|



G
e|------ ------ ------ ------|------ ------ ------ ------|
B|0------0------0------0-----|0------0------0------0-----|
G|0------0------0------0-----|0------0------0------0-----|
D|0------0------0------0-----|0------0------0------0-----|
A|--------------5------------|--------------0------2-----|
E|3--------------------------|3------3-------------------|
screen and now the
e|------ ------ ------ ------|------ 15---- 14---- 13----|
B|12-------------------121314|15-----12------------------|
G|12-------------------12----|-------12------------------|
D|12-------------------12----|---------------------------|
A|---------------------------|---------------------------|
E|---------------------------|---------------------------|



C E
e|0----- 0----- 0----- 0-----|0----- 0----- 0----- 0-----|
B|1------1------1------1-----|0------0------0------0-----|
G|0------0------0------0-----|1------1------1------1-----|
D|---------------------------|---------------------------|
A|3--------------------3-----|2--------------------2-----|
E|---------------------------|---------------------------|
thought of meeting you makes me weak on the
e|12---- ------ ------ ------|10---- ------ ------ ------|
B|13-------------------------|12-------------------------|
G|12-------------------------|13-------------------------|
D|---------------------------|---------------------------|
A|---------------------------|---------------------------|
E|---------------------------|---------------------------|



Am D
e|0----- 0----- 0----- 0-----|------ ------ ------ ------|
B|1------1------1------1-----|3---3------3---------------|
G|2------2------2------2-----|2---2------2---------------|
D|---------------------------|0---2------4---------------|
A|0--------------------------|---------------------------|
E|---------------------------|---------------------------|
knee Oh
e|-8---- ------ ------ ------|7---7- ----7- ------ ------|
B|10-------------------------|7---7------7---------------|
G|-9-------------------------|7---7------7---------------|
D|---------------------------|---------------------------|
A|---------------------------|---------------------------|
E|---------------------------|---------------------------|



G6
e|3----- 3----- 3----- 3-----|3----- 3----- 3----- 3-----|
B|5------5------5------5-----|5------5------5------5-----|
G|4------4------4------4-----|4------4------4------4-----|
D|---------------------------|---------------------------|
A|--------------5------------|--------------5------------|
E|3--------------------------|3--------------------------|
Honey pie You are driving me
e|------ ------ ------ ------|------ ------ ------ ------|
B|8--------------------------|8--------------------------|
G|9--------------------9-----|7--------------------------|
D|9--------------------------|9------9-------------------|
A|---------------------------|--------------10-----7-----|
E|---------------------------|---------------------------|



Eb7 E7
e|------ ------ ------ ------|------ ------ ------ ------|
B|4------4------4------4-----|5------5------5------5-----|
G|6------6------6------6-----|7------7------7------7-----|
D|5------5------5------5-----|6------6------6------6-----|
A|6--------------------------|7--------------------------|
E|--------------6------------|--------------7------------|
frantic Sail across the At....
e|------ ------ 6----- ------|------ ------ 6----- 7-----|
B|4-------------4------------|5-------------5------5-----|
G|6-------------0------------|7-------------7------7-----|
D|5--------------------------|6--------------------------|
A|6-------------6------------|7--------------------------|
E|---------------------------|---------------------------|



A D7
e|------ ------ ------ ------|------ ------ ------ ------|
B|5------5------5------5-----|3------3------3------3-----|
G|6------6------6------6-----|5------5------5------5-----|
D|7------7------7------7-----|4------4------4------4-----|
A|--------------7------------|5--------------------------|
E|5--------------------------|--------------5------------|
lantic to be where you be......
e|------ ------ ------ ------|5----- ------ ------ ------|
B|8--------------------------|7--------------------------|
G|6--------------------------|7--------------------------|
D|7--------------------------|0--------------------------|
A|7--------------------------|---------------------------|
E|---------------------------|---------------------------|



G
e|------ ------ ------ ------|------ ------ ------ ------|
B|3------3------3------3-----|4------4------4------4-----|
G|4------4------4------4-----|5------5------5------5-----|
D|5------5------5------------|4------4------4------4-----|
A|---------------------------|5------5-------------------|
E|3-------------3------------|--------------5------5-----|
long Honey pie come back to
e|------ ------ 10---- ------|11---- ----12 ------ ------|
B|--------------12-----------|11---------10--------------|
G|--------------12-----------|12---------11--------------|
D|---------------------------|---------------------------|
A|---------------------------|---------------------------|
E|---------------------------|---------------------------|



Solo

G6
e|3----- 3----- 3----- 3-----|3----- 3----- 3----- 3-----|
B|5------5------5------5-----|5------5------5------5-----|
G|4------4------4------4-----|4------4------4------4-----|
D|---------------------------|---------------------------|
A|--------------5------------|--------------5------------|
E|3--------------------------|3--------------------------|

e|----10 ------ ------ ------|------ ------ 7---8- 7-----|
B|12-------------------------|-----------8-------------8-|
G|-----------12--------------|---------------------------|
D|---------------------------|---------------------------|
A|---------------------------|---------------------------|
E|---------------------------|---------------------------|
me

Eb7 E7
e|------ ------ ------ ------|------ ------ ------ ------|
B|4----------4---------------|5----------5---------------|
G|6----------6---------------|7----------7---------------|
D|5----------5---------------|6----------6---------------|
A|6----------6---------------|7----------7---------------|
E|---------------------------|---------------------------|

e|------ ----8- 9---11 ----12|14---- ----13 ----12 ------|
B|-------8-------------------|---------------------------|
G|----8----------------------|---------------------------|
D|---------------------------|---------------------------|
A|---------------------------|---------------------------|
E|---------------------------|---------------------------|


A7 D9
e|------ ------ ------ ------|------ ------ ------ ------|
B|8------8------8------8-----|5------5------5------5-----|
G|6------6------6------6-----|5------5------5------5-----|
D|7------7------7------7-----|4------4------4------4-----|
A|--------------7------------|5--------------------------|
E|5--------------------------|--------------5------------|
e|------ ------ ------ ------|------ ------ ------ ------|
B|8--------------------------|5--------------------------|
G|6--------------------------|5--------------------------|
D|5--------------------------|4--------------------------|
A|7--------------------------|5--------------------------|
E|5--------------------------|---------------------------|


G Eb9 D9
e|------ ------ ------ ------|------ ------ ------ ------|
B|3------3------3------3-----|6----------5---------------|
G|4------4------4------4-----|6----------5---------------|
D|5------5------5------5-----|5----------4---------------|
A|--------------5------------|6----------5---------------|
E|3--------------------------|---------------------------|

e|------ ------ ------ ------|------ ------ ------ ------|
B|3--------------------------|6----------5---------------|
G|4--------------------------|6----------5---------------|
D|5--------------------------|5----------4---------------|
A|---------------------------|6----------5---------------|
E|3--------------------------|---------------------------|


G6
e|3----- 3----- 3----- 3-----|3----- 3----- 3----- 3-----| -
B|5------5------5------5-----|5------5------5------5-----|
G|4------4------4------4-----|4------4------4------4-----|
D|---------------------------|---------------------------|
A|--------------5------------|--------------5------------|
E|3--------------------------|3--------------------------|

e|------ ----3- ----7- ------|10---- ------ 7----- ------|
B|3------5----------5--------|-8------------5------------|
G|4-----------------4--------|-7------------4------------|
D|---------------------------|---------------------------|
A|---------------------------|---------------------------|
E|---------------------------|---------------------------|


Eb7 E7
e|------ ------ ------ ------|------ ------ ------ ------|
B|4----------4---------------|5----------5---------------|
G|6----------6---------------|7----------7---------------|
D|5----------5---------------|6----------6---------------|
A|6----------6---------------|7----------7---------------|
E|---------------------------|---------------------------|

e|6----- ----6- ------ ------|7----- ----7- ------ ------|
B|8----------8---------------|9----------9---------------|
G|8----------8---------------|9----------9---------------|
D|---------------------------|---------------------------|
A|---------------------------|---------------------------|
E|---------------------------|---------------------------|

e|------ ------ ------ ------|------ ------ ------ -10---|
B|---------------------------|---------------------------|
G|-------10---------10-------|----11-------B13R12B13-----|
D|---------------------------|---------------------------|
A|---------------------------|---------------------------|
E|---------------------------|---------------------------|




A7 D9
e|------ ------ ------ ------|------ ------ ------ ------|
B|8------8------8------8-----|5------5------5------5-----|
G|6------6------6------6-----|5------5------5------5-----|
D|7------7------7------7-----|4------4------4------4-----|
A|7-------------7------------|5--------------------------|
E|---------------------------|--------------5------------|

e|------ ------ ------ ------|10---- ------ 6----- ------|
B|8-------------5------8-----|-7------------7------------|
G|6--------------------------|-7------------7------------|
D|7--------------------------|---------------------------|
A|---------------------------|---------------------------|
E|---------------------------|---------------------------|


G F# F
e|------ ------ ------ ------|------ ------ ------ ------|
B|3------3------3------3-----|2------2------1------1-----|
G|4------4------4------4-----|3------3------2------2-----|
D|5------5------5------5-----|4------4------3------3-----|
A|---------------------------|---------------------------|
E|3-------------3------------|2-------------1------------|

e|------ 7-8-9- 10-9-8 7-----|------ ------ ------ ------|
B|-----------------------10-9|8-7\6----------------------|
G|---------------------------|-------9-8-7--6\5----------|
D|---------------------------|------------------9--8-7-6-|
A|---------------------------|---------------------------|
E|---------------------------|---------------------------|




Em D
e|------ ------ ------ ------|------ ------ ------ ------|
B|0------0------0------0-----|3------3------3------3-----|
G|0------0------0------0-----|2------2------2------2-----|
D|2------2------2------2-----|0------0------0------0-----|
A|---------------------------|---------------------------|
E|0-------------0------------|2-------------2------------|
Will the wind that blew her boat a.....
e|------ ------ ------ ------|------ ------ ------ ------|
B|-8-------------------------|10-------------------------|
G|-9-------------------------|11-------------------------|
D|-9-------------------------|11-------------------------|
A|10-------------------------|---------------------------|
E|---------------------------|---------------------------|


G
e|------ ------ ------ ------|------ ------ ------ ------|
B|0------0------0------0-----|0------0------0------0-----|
G|0------0------0------0-----|0------0------0------0-----|
D|0------0------0------0-----|0------0------0------0-----|
A|--------------5------------|--------------0------2-----|
E|3--------------------------|3------3-------------------|
cross the sea
e|------ ------ ------ ------|------ ------ ------ ------|
B|-------121314-151413-12----|12-------------------------|
G|-------12--------------1514|12-----10------------------|
D|-------12------------------|12-------------------------|
A|---------------------------|---------------------------|
E|---------------------------|---------------------------|



C E
e|0----- 0----- 0----- 0-----|0----- 0----- 0----- 0-----|
B|1------1------1------1-----|0------0------0------0-----|
G|0------0------0------0-----|1------1------1------1-----|
D|---------------------------|---------------------------|
A|3------3-------------------|2------2-------------------|
E|---------------------------|---------------------------|
Kindly send her sailing back to me.
e|------ ------ ------ ------|------ ------ ------ ------|
B|-8-------------------------|9--------------------------|
G|-9-------------------------|9--------------------------|
D|10-------------------------|9--------------------------|
A|---------------------------|---------------------------|
E|---------------------------|---------------------------|



Am D
e|0----- 0----- 0----- 0-----|------ ------ ------ ------|
B|1------1------1------1-----|3---3------3---------------|
G|2------2------2------2-----|2---2------2---------------|
D|---------------------------|0---2------4---------------|
A|0--------------------------|---------------------------|
E|---------------------------|---------------------------|

e|------ 7----- 8----- 8-----|------ ----5- ------ ------|
B|10-------------------8-----|7---8------7---------------|
G|-9-------------------9-----|7----------7---------------|
D|---------------------------|---------------------------|
A|---------------------------|---------------------------|
E|---------------------------|---------------------------|



G6
e|3----- 3----- 3----- 3-----|3----- 3----- 3----- 3-----|
B|5------5------5------5-----|5------5------5------5-----|
G|4------4------4------4-----|4------4------4------4-----|
D|---------------------------|---------------------------|
A|--------------5------------|--------------5------------|
E|3--------------------------|3--------------------------|
Honey pie You are making me
e|------ ------ ------ ------|------ ------ ------ 7-----|
B|8--------------------------|--------------8------------|
G|7--------------------------|-------9-------------------|
D|9--------------------------|---------------------------|
A|---------------------------|---------------------------|
E|---------------------------|---------------------------|



Eb7 E7
e|------ ------ ------ ------|------ ------ ------ ------|
B|4------4------4------4-----|5------5------5------5-----|
G|6------6------6------6-----|7------7------7------7-----|
D|5------5------5------5-----|6------6------6------6-----|
A|6--------------------------|7--------------------------|
E|--------------6------------|--------------7------------|
crazy I'm in love but I'm
e|11---- ------ ------ ------|12---- ------ ------ ------|
B|-8---------11--------------|-9------------11-----12----|
G|-8----------8--------------|-9-------------9-----------|
D|-8----------8--------------|-9-------------9-----------|
A|---------------------------|---------------------------|
E|---------------------------|---------------------------|



A D7
e|------ ------ ------ ------|------ ------ ------ ------|
B|5------5------5------5-----|3------3------3------3-----|
G|6------6------6------6-----|5------5------5------5-----|
D|7------7------7------7-----|4------4------4------4-----|
A|--------------7------------|5--------------------------|
E|5--------------------------|--------------5------------|
lazy So won't you please come home
e|------ ------ ------ ------|------ ------ ------ ------|
B|5--------------------------|0--------------------------|
G|6--------------------------|2--------------------------|
D|7--------------------------|0--------------------------|
A|---------------------------|---------------------------|
E|---------------------------|---------------------------|



G C#9 D9
e|------ ------ ------ ------|------ ------ ------ ------|
B|3------3------3------3-----|4------4------5------5-----|
G|4------4------4------4-----|4------4------5------5-----|
D|5------5------5------5-----|3------3------4------4-----|
A|--------------5------------|4-------------5------------|
E|3--------------------------|---------------------------|
Come come back to me Honey pie
e|------ ------ 10---- ------|11---- ------ 12---- ------|
B|--------------12-----------|11------------10-----------|
G|--------------12-----------|12------------11-----------|
D|---------------------------|---------------------------|
A|---------------------------|---------------------------|
E|---------------------------|---------------------------|


G
e|3----- 3----- 3----- 3-----|3----- 3----- 3----- 3-----|
B|5------5------5------5-----|5------5------5------5-----|
G|4------4------4------4-----|4------4------4------4-----|
D|---------------------------|---------------------------|
A|--------------5------------|--------------5------------|
E|3--------------------------|3--------------------------|

e|7---10 ------ ------ ------|----10 12--15 ----12 10----|
B|8----8-----8---------------|----12-12--12-----12-12----|
G|7----------7---------------|----12-12--12-----12-12----|
D|---------------------------|---------------------------|
A|---------------------------|---------------------------|
E|---------------------------|---------------------------|


Eb7 E7
e|------ ------ ------ ------|------ ------ ------ ------|
B|4------4------4------4-----|5------5------5------5-----|
G|6------6------6------6-----|7------7------7------7-----|
D|5------5------5------5-----|6------6------6------6-----|
A|6--------------------------|7--------------------------|
E|--------------6------------|--------------7------------|

e|6----- ----6- ------ ------|------ ----12 ------ ------|
B|8----------8---------------|----11-12---------12-11--12|
G|8----------8---------------|----12------------12-------|
D|---------------------------|----11------------11-------|
A|---------------------------|---------------------------|
E|---------------------------|---------------------------|


A D7
e|------ ------ ------ ------|------ ------ ------ ------|
B|5------5------5------5-----|3------3------3------3-----|
G|6------6------6------6-----|5------5------5------5-----|
D|7------7------7------7-----|4------4------4------4-----|
A|--------------7------------|5--------------------------|
E|5--------------------------|--------------5------------|

e|------ ------ ------ ------|------ 10---- -9---- -8----|
B|8----------8---------------|-------12-----11-----10----|
G|6----------6---------------|-------11-----10------9----|
D|7----------7---------------|---------------------------|
A|7----------7---------------|---------------------------|
E|---------------------------|---------------------------|


G Eb9 D9
e|------ ------ ------ ------|------ ------ ------ ------|
B|3------3------3------3-----|6----------5---------------|
G|4------4------4------4-----|6----------5---------------|
D|5------5------5------5-----|5----------4---------------|
A|--------------5------------|6----------5---------------|
E|3--------------------------|---------------------------|

e|7----- 8----- 10---- ------|6----- ----5- ------ ------|
B|8--------------8-----8-----|8----------7---------------|
G|7--------------7-----------|8----------7---------------|
D|---------------------------|---------------------------|
A|---------------------------|---------------------------|
E|---------------------------|---------------------------|


G
e|7----- ------ ------ ------|------ ------ ------ ------|
B|8--------------------------|---------------------------|
G|7--------------------------|---------------------------|
D|---------------------------|---------------------------|
A|---------------------------|---------------------------|
E|---------------------------|---------------------------|

e|------ ------ ------ ------|------ ------ ------ ------|
B|3--------------------------|---------------------------|
G|4--------------------------|---------------------------|
D|5--------------------------|---------------------------|
A|---------------------------|---------------------------|
E|3--------------------------|---------------------------|








B Bend
R Release
/ slide up
\ slide down
H hammer-on
P pull-off
~ vibrato
+ harmonic
x Mute note
. - play note like a dot in standard notation
^ - ties two notes together

pjvill

Submitted by pjvill at Tue 06 Dec, 2005 12:09 pm

Author: ?
Composer: ?
Publisher: ?
Language: English

Reactions

CommonCrawl [Bot]

Follow Muzikum