The Beatles

The Beatles
Her Majesty Ver 2 (Guitar tab)

----------------------------------------------------------------
THE BEATLES - HER MAJESTY (Lennon/McCartney) From ABBEY ROAD
album. Released on 26th September 1969.

----------------------------------------------------------------

Tabbed by:PJVillanueva




Her Majesty's a pretty nice girl,
but she doesn't have a lot to say
Her Majesty's a pretty nice girl
but she changes from day to day

I want to tell her that I love her a lot
But I gotta get a bellyful of wine
Her Majesty's a pretty nice girl
Someday I'm going to make her mine, oh yeh,
someday I'm going to make her mine.




¨¨¨¨¨¨¨¨¨¨¨¨¨¨¨¨¨¨¨¨¨¨¨¨¨¨¨¨¨¨¨
D
e|------- ------- ------- -------|2------ ------- ------- -------|
B|-------------------------------|3------------------------------|
G|-------------------------------|2------------------------------|
D|-------------------------------|0------------------------------|
A|-------------------------------|0------------------------------|
E|-------------------------------|-------------------------------|


D Bm
e|2------ 2---2-- ----2-- 2------|------- ------- ------- -------|
B|--------3---3-------3---3------|3-------3---3-------3---3------|
G|--------2---2-------2---2------|--------4---4-------4---4------|
D|0------------------------------|--------4---4-------4---4------|
A|----------------4--------------|2---------------0--------------|
E|-------------------------------|-------------------------------|
Her Ma.......jesty's a pretty nice girl, but she

Em A7 D
e|------- ------- ------- -------|2------ ------- ------- -------|
B|3---------------2--------------|-------------------------------|
G|0---------------0--------------|-------------------------------|
D|------------------------2------|0------------------------------|
A|--------2-------0--------------|--------0-------2-------4------|
E|0------------------------------|-------------------------------|
doesn't have a lot to say.

Bm
e|2------ 2---2-- ----2-- 2------|2------ ------- ------- -------|
B|--------3---3-------3---3------|--------3---3-------3---3------|
G|--------2---2-------2---2------|--------4---4-------4---4------|
D|0------------------------------|--------4---4-------4---4------|
A|----------------4--------------|2---------------0--------------|
E|-------------------------------|-------------------------------|
Her Ma........jesty's a pretty nice girl, but she

Em7 A Asus4/6 A
e|------- ------- ------- -------|------- ------- ------- -------|
B|3-------3---3-------3---3------|2-------2---2-H-3-P-2---2------|
G|--------0---0-------0---0------|--------2---2---2---2---2------|
D|--------0---0-------0---0------|--------2---2-H-4-P-2---2------|
A|-------------------------------|0-----------------------0------|
E|0---------------0--------------|-------------------------------|
changes from day to day.

Bm Bsus2
e|------- ------- ------- -------|------- ------- ------- -------|
B|3-------3---3-------3---3------|2-------2---2-------2---2------|
G|--------4---4-------4---4------|--------4---4-------4---4------|
D|--------4---4-------4---4------|--------4---4-------4---4------|
A|2------------------------------|2------------------------------|
E|----------------2--------------|----------------2--------------|
I want to tell her that I love her a lot but I

D7 G
e|------- ------- ------- -------|------- ------- ------- -------|
B|2-------2---2-------2---2------|0-------0---0-------0---0------|
G|--------5---5-------5---5------|--------0---0-------0---0------|
D|--------4---4-------4---4------|--------0---0-------0---0------|
A|5---------------5--------------|-------------------------------|
E|-------------------------------|3---------------3--------------|
gotta get a bellyful of wine.

Em D Bm
e|------- ------- ------- -------|------- ------- ------- -------|
B|--------5---------------5------|3-------3-------3---3---3------|
G|--------0---------------0------|--------2-----------4---4------|
D/5---------------5--------------|0-------------------4---4------|
A|-------------------------------|----------------2--------------|
E|-------------------------------|-------------------------------|
Her Ma..... jesty's a pretty nice girl someday

Em7 A D Bm
e|------- ------- ------- -------|2------ 2---2-- ------- -------|
B|3------------------------------|--------3---3-------3---3------|
G|0------------------------------|--------2---2-------4---4------|
D|-------------------------------|0-------------------4---4------|
A|----------------0--------------|----------------2--------------|
E|0------------------------------|-------------------------------|
I'm going to make her mine, oh yeah, some

Em7 A D A
e|------- ------- ------- -------|2------ ------- ------- -------|
B|3------------------------------|3------------------------------|
G|0------------------------------|-------------------------------|
D|-------------------------------|0------------------------------|
A|----------------0--------------|--------0----------------------|
E|0------------------------------|-------------------------------|
day I'm gonna make her mine.







B Bend
R Release
/ slide up
\ slide down
H hammer-on
P pull-off
~ vibrato
+ harmonic
x Mute note
. - play note like a dot in standard notation
^ - ties two notes together

pjvill

Submitted by pjvill at Tue 06 Dec, 2005 12:00 pm

Author: ?
Composer: ?
Publisher: ?
Language: English

Reactions

CommonCrawl [Bot]

Follow Muzikum