The Beatles

The Beatles
Hello Goodbye (Guitar tab)

------------------------------------------------------------------------
THE BEATLES - HELLO GOODBYE (Lennon/McCartney) From MAGICAL MISTERY TOUR
2 EP. Released on 8th December 1967.

------------------------------------------------------------------------

Tabbed by:PJVillanueva






Dm/F C
E|1---1---1---1---|1---1---1---1---|0---0---0---0---|0---0---0---0---|
B|3---3---3---3---|3---3---3---3---|1---1---1---1---|1---1---1---1---|
G|2---2---2---2---|2---2---2---2---|0---0---0---0---|0---0---0---0---|
D|3---3---3---3---|3---3---3---3---|2---2---2---2---|2---2---2---2---|
A|----------------|----------------|3---------------|----------------|
E|1---------------|----------------|----------------|----------------|
You say yes I say no
E|----5-------5---|----------------|----------------|----------------|
B|6---6-------6---|----------------|----8-------8---|----------------|
G|7---------------|----------------|-9--9-------9---|----------------|
D|----------------|----------------|10--------------|----------------|


G7 Am
E|----------------|----------------|----------------|----------------|
B|0---3---3---3---|3---3---3---3---|1---1---1---1---|1---1---1---1---|
G|0---0---0---0---|0---0---0---0---|2---0---0---0---|0---0---0---0---|
D|3---3---3---3---|3---3---3---3---|2---2---3---2---|0---2---2---2---|
A|----------------|----------------|0---------------|----3---2---0---|
E|3---------------|----------------|----------------|----------------|
You say stop and I say go go go
E|----------------|----------------|----------------|------------7---|
B|----6-------6---|----------------|----5-------5---|----8-------8---|
G|7---7-------6---|------------4-/-|5---5-------5---|----9-----------|
D|9---------------|------------5-/-|7---------------|----------------|


G7 Am
E|1---1---1---1---|1---1---1---1---|----------------|----------------|
B|3---3---3---3---|3---3---3---3---|1---1---1---1---|1---1---1---1---|
G|0---0---0---0---|0---0---0---0---|2---2---2---2---|2---2---2---2---|
D|----0-------0---|----0-------0---|2---2---2---0---|2---0---2---2---|
A|--------2-------|--------2-------|0-------3-------|--------3---0---|
E|3---------------|3---------------|----------------|----------------|
Oh no
E|----------------|----------------|-8--------------|----------------|
B|----------------|----------------|10--------------|----------------|
G|----------------|----------------|----------------|----------------|


G7
E|1---1---1---1---|1---1---1---1---|--------3---0---|----------------|
B|3---3---3---3---|3---3---3---3---|3---3---3---3---|3---------------|
G|0---0---0---0---|0---0---0---0---|0---0---0---0---|0---0---0---0---|
D|----0-------0---|------------0---|0---0---0---0---|0---------------|
A|--------2-------|----0---2-------|----------------|----------------|
E|3---------------|3---------------|3---------------|----------------|
You say goodbye and
E|----7---7---7---|7---7---7---7---|7---------------|----------------|
B|----8---8---8---|8---8---8---8---|8---------------|6---------------|
G|----------------|----------------|----------------|7---------------|


G7sus4 C Cmaj7 Am7
E|----------------|----------------|----------------|----------------|
B|1---------------|1---1---1---1---|1---1---1---1---|1---1---1---1---|
G|0---0---0---0---|0---0---0---0---|0---0---0---0---|0---0---0---0---|
D|3---------------|2---2---2---2---|2---2---2---2---|2---2---2---2---|
A|----------------|3-------3-------|2-------2-------|0-------0-------|
E|3---------------|----------------|----------------|----------------|
I say hello hello hello
E|----------------|----------------|----------------|----------------|
B|----------------|5---5---5---5---|5---5---5---5---|5---5---5---5---|
G|----------------|5---5---5---5---|4---4---4---4---|2---2---2---2---|

E|----------------|----------------|----------------|----------------|
B|----------------|----------------|--------0---1---|----------------|
G|----------------|----------------|0---2-----------|----------------|
D|----------------|----0---2---3---|----------------|----------------|
A|----------------|3---------------|----------------|----------------|
E|----------------|----------------|----------------|----------------|


Cmaj7 F Ab C
E|----------------|----------------|----------------|----------------|
B|1---1---1---1---|1---1---1---1---|4---4---4---4---|1---1---1---1---|
G|0---0---0---0---|2---2---2---2---|5---5---5---5---|0---0---0---0---|
D|2---2---2---2---|3---3---3---3---|6---6---6---6---|2---2---2---2---|
A|2-------2-------|----------------|----------------|3-------3-------|
E|----------------|1-------1-------|4-------4-------|----------------|
I don't know why you say goodbye I say hello
E|----------------|----------------|----------------|----------------|
B|5---5---5---5---|6---6---6---6---|4---4---4---4---|5---5---5---5---|
G|4---4---4---4---|5---5---5---5---|5---5---5---5---|5---5---5---5---|
D|----------------|7---7---7---7---|6---6---6---6---|----------------|

E|----------------|----------------|----------------|----------------|
B|----------------|----------------|----------------|----------------|
G|--------0---2---|----------------|----------------|----------------|
D|2---3-----------|----------------|----------------|----0---2---3---|
A|----------------|----------------|----------------|3---------------|
E|----------------|----------------|----------------|----------------|


Cmaj7 Am7 Cmaj7 F
E|----------------|----------------|----------------|----------------|
B|1---1---1---1---|1---1---1---1---|1---1---1---1---|1---1---1---1---|
G|0---0---0---0---|0---0---0---0---|0---0---0---0---|2---2---2---2---|
D|2---2---2---2---|2---2---2---2---|2---2---2---2---|3---3---3---3---|
A|2-------2-------|0-------0-------|2-------2-------|----------------|
E|----------------|----------------|----------------|1-------1-------|
hello hello I don't know why you say goodbye
E|----------------|----------------|----------------|----------------|
B|5---5---5---5---|5---5---5---5---|5---5---5---5---|6---6---6---6---|
G|4---4---4---4---|2---2---2---2---|4---4---4---4---|5---5---5---5---|
D|----------------|----------------|----------------|7---7---7---7---|

E|----------------|----------------|----------------|----------------|
B|--------0---1---|----------------|----------------|----------------|
G|0---2-----------|----------------|--------0---2---|----------------|
D|----------------|----------------|2---3-----------|----------------|


Bb C
E|----------------|----------------|----------------|1---1---1---1---|
B|3---3---3---3---|1---1---1---1---|------------1---|3---3---3---3---|
G|3---3---3---3---|0---0---0---0---|----0---2-------|2---2---2---2---|
D|3---3---3---3---|2---2---2---0---|2-------2-------|3---3---3---3---|
A|1-------1-------|3-------3-------|3-------3-------|----------------|
E|----------------|----------------|----------------|1---------------|
I say hello I say high
E|----------------|----------------|----------------|----------------|
B|4---4---4---4---|5---------------|----------------|------------6---|
G|5---5---5---5---|5---------------|----------------|------------7---|
D|6---6---6---6---|----------------|----------------|----------------|

E|----------------|----------------|
B|----------------|----------------|
G|1---------------|----------------|
D|----3---0-------|----------------|
A|------------3---|----------------|
E|----------------|----------------|



E|1---1---1---1---|0---0---0---0---|0---0---0---0---|----------------|
B|3---3---3---3---|1---1---1---1---|1---1---1---1---|3---3---3---3---|
G|2---2---2---2---|0---0---0---0---|0---0---0---0---|0---0---0---0---|
D|3---3---3---3---|2---2---2---2---|2---2---2---2---|3---3---3---3---|
A|----------------|3---------------|----------------|----------------|
E|----------------|----------------|----------------|3---------------|
you say low you say why
E|----5---5-------|----------------|----------------|----------------|
B|----6---6-------|----------------|----8---8-------|----------------|
G|----------------|-------------9--|----9---9-------|------------7---|
D|----------------|------------10--|----------------|------------9---|




E|----------------|----------------|----------------|----------------|
B|3---3---3---3---|1---1---1---1---|1---1---1---1---|3---3---3---3---|
G|0---0---0---0---|2---0---0---0---|0---0---0---0---|0---0---0---0---|
D|3---3---3---3---|2---2---3---2---|0---2---2---2---|0---0---0---0---|
A|----------------|0---------------|----3---2---0---|--------2-------|
E|----------------|----------------|----------------|3---------------|
and I say I don't know
E|----------------|5---------------|----------------|----------------|
B|----6---6-------|----8---6---5---|----------------|----------------|
G|----7---7-------|----------------|7---5---4-------|----------------|
D|----------------|----------------|------------7---|5---------------|




E|----------------|----------------|----------------|1---1---1---1---|
B|3---3---3---3---|1---1---1---1---|1---1---1---1---|3---3---3---3---|
G|0---0---0---0---|2---2---2---2---|2---2---2---2---|0---0---0---0---|
D|0---0---0---0---|2---2---0---2---|0---0---2---2---|----0-------0---|
A|----0---2-------|0---3-----------|----3---2---0---|--------2-------|
E|3---------------|----------------|----------------|3---------------|
Oh no
E|----------------|----------------|----------------|----7---7---7---|
B|----------------|----------------|----------------|----8---8---8---|
G|----------------|----------------|----------------|----------------|
D|----------------|7---------------|----------------|----------------|



E|1---1---1---1---|3-------0-------|----------------|----------------|
B|3---3---3---3---|3-------3---1---|3---------------|1---------------|
G|0---0---0---0---|0-------0---0---|0---0---0---0---|0---0---0---0---|
D|------------0---|----------------|3---------------|3---------------|
A|----0---2-------|----------------|----------------|----------------|
E|3---------------|3---------------|3---------------|3---------------|
You say goodbye and I say hello
E|7---7---7---7---|7---------------|----------------|5---------------|
B|8---8---8---8---|8---------------|6---------------|6---------------|
G|----------------|----------------|7---------------|----------------|
D|----------------|----------------|----------------|----------------|



E|----------------|----------------|----------------|----------------|
B|1---1---1---1---|1---1---1---1---|1---1---1---1---|1---1---1---1---|
G|0---0---0---0---|0---0---0---0---|0---0---0---0---|0---0---0---0---|
D|2---2---2---2---|2---2---2---2---|2---2---2---2---|2---2---2---2---|
A|3-------3-------|2-------2-------|0-------0-------|2-------2-------|
E|----------------|----------------|----------------|----------------|
hello hello I don't know
(hello goodbye hello goodbye) (hello goodbye)
E|----------------|----------------|----------------|----------------|
B|5---5---5---5---|5---5---5---5---|5---5---5---5---|5---5---5---5---|
G|5---5---5---5---|4---4---4---4---|2---2---2---2---|4---4---4---4---|
D|----------------|----------------|----------------|----------------|



E|----------------|----------------|----------------|----------------|
B|1---1---1---1---|----------------|1---1---1---1---|1---1---1---1---|
G|2---2---2---2---|5---5---5---5---|0---0---0---0---|0---0---0---0---|
D|3---3---3---3---|6---6---6---6---|2---2---2---2---|2---2---2---2---|
A|0-------0-------|6---6---6---6---|3-------3-------|2-------2-------|
E|----------------|4-------4-------|----------------|----------------|
why you say goodbye I say hello hello hello
(Hello goodbye hello goodbye)
E|----------------|----------------|----------------|----------------|
B|6---6---6---6---|4---4---4---4---|5---5---5---5---|5---5---5---5---|
G|5---5---5---5---|5---5---5---5---|5---5---5---5---|4---4---4---4---|
D|7---7---7---7---|6---6---6---6---|----------------|----------------|



E|----------------|----------------|----------------|----------------|
B|1---1---1---1---|1---1---1---1---|1---1---1---1---|3---3---3---3---|
G|0---0---0---0---|0---0---0---0---|2---2---2---2---|3---3---3---3---|
D|2---2---2---2---|2---2---2---2---|3---3---3---3---|3---3---3---3---|
A|0-------0-------|2-------2-------|----------------|1-------1-------|
E|----------------|----------------|1-------1-------|----------------|
I don't know why you say goodbye I say hello
(Hello goodbye) (hello goodbye)
E|----------------|----------------|----------------|----------------|
B|5---5---5---5---|5---5---5---5---|6---6---6---6---|4---4---4---4---|
G|2---2---2---2---|4---4---4---4---|5---5---5---5---|5---5---5---5---|
D|----------------|----------------|7---7---7---7---|6---6---6---6---|



E|0---0---0---0---|0---0---0-------|1---------------|----1---1---1---|
B|1---1---1---1---|1---1---1-------|3---------------|----3---3---3---|
G|0---0---0---0---|0---0---0-------|2---------------|----2---2---2---|
D|2---2---2---2---|2---2---2-------|3---------------|----3---3---3---|
A|3-------3-------|3-------3-------|----------------|----------------|
E|----------------|----------------|1---------------|----------------|

E|----------------|----------------|----------------|----------------|
B|5---------------|----------------|6-------6-------|6---------------|
G|5---------------|----------------|----7-------7---|--------5---7---|
D|----------------|----------------|----------------|----7-----------|



E|----------------|----------------|----------------|----------------|
B|1---1---1---1---|1---1---1---1---|3---3---3---3---|3---3---3---3---|
G|0---0---0---0---|0---0---0---0---|0---0---0---0---|0---0---0---0---|
D|2---2---2---2---|2---2---2---2---|0---0---0---0---|0---0---0---0---|
A|3---------------|----------------|----------------|----------------|
E|----------------|----------------|3---------------|----------------|
Why why why why why why Do you say
E|----------------|----------------|----------------|----------------|
B|5---6---5-------|--------5---6---|8---6---5-------|----------------|
G|------------7---|5---7-----------|------------7---|5---4-----------|
D|----------------|----------------|----------------|--------7---5---|



E|0---0---0---0---|0---0---0---0---|----------------|----------------|
B|1---1---1---1---|1---1---1---1---|3---3---3---3---|3---3---3---3---|
G|2---0---0---0---|2---2---2---2---|0---0---0---0---|0---0---0---0---|
D|2---2---3---2---|0---2---2---2---|0---0---0---0---|0---0---0---0---|
A|0---------------|----3---2---0---|--------2-------|----0---2-------|
E|----------------|----------------|3---------------|3---------------|
good bye good bye bye bye bye bye
E|----------------|----------------|7---------------|----------------|
B|----------------|8---------------|8---------------|----------------|
G|----4---5---7---|9---------------|----------------|----------------|
D|7---------------|----------------|----------------|----------------|



E|----------------|----------------|3---3---3---3---|3---3---3---3---|
B|1---1---1---1---|1---1---1---1---|3---3---3---3---|3---3---3---3---|
G|2---2---2---2---|2---2---2---2---|0---0---0---0---|0---0---0---0---|
D|2---2---2---0---|2---0---2---2---|--------0-------|------------0---|
A|0---0---3-------|--------3---0---|----2-------2---|----0---2-------|
E|----------------|----------------|3---------------|3---------------|
Oh no
E|-8--------------|----------------|----7---7---7---|7---7---7---7---|
B|10--------------|----------------|----8---8---8---|8---8---8---8---|
G|----------------|----------------|----------------|----------------|



E|3---------------|----------------|----------------|----------------|
B|3---------------|3---------------|--------1-------|1---1---1---1---|
G|0---------------|0---------------|--------0-------|0---0---0---0---|
D|----------------|0---------------|--------3-------|2---2---2---2---|
A|----------------|----------------|----------------|3-------3-------|
E|3---------------|3---------------|--------3-------|----------------|
You say goodbye and I say hello
E|7---------------|----------------|5---------------|----------------|
B|8---------------|6---------------|6-------8---6---|5---5---5---5---|
G|----------------|7---------------|--------9---7---|5---5---5---5---|
D|----------------|----------------|----------------|----------------|

E|----------------|----------------|----------------|----------------|
B|----------------|----------------|----------------|----------------|
G|----------------|----------------|----------------|----------------|
D|----------------|----------------|----------------|----0---2---3---|
A|----------------|----------------|----------------|3---------------|
E|----------------|----------------|----------------|----------------|




E|----------------|----------------|----------------|----------------|
B|1---1---1---1---|1---1---1---1---|1---1---1---1---|1---1---1---1---|
G|0---0---0---0---|0---0---0---0---|0---0---0---0---|2---2---2---2---|
D|2---2---2---2---|2---2---2---2---|2---2---2---2---|3---3---3---3---|
A|2-------2-------|0-------0-------|2-------2-------|0-------0-------|
E|----------------|----------------|----------------|----------------|
hello hello I don't know why you say goodbye
E|----------------|----------------|----------------|----------------|
B|5---5---5---5---|5---5---5---5---|5---5---5---5---|6---6---6---6---|
G|4---4---4---4---|2---2---2---2---|4---4---4---4---|5---5---5---5---|
D|----------------|----------------|----------------|7---7---7---7---|

E|----------------|----------------|----------------|----------------|
B|--------0---1---|----------------|----------------|----------------|
G|0---2-----------|----------------|--------0---2---|----------------|
D|----------------|----------------|2---3-----------|----------------|
A|----------------|----------------|----------------|----------------|
E|----------------|----------------|----------------|----------------|




E|----------------|----------------|----------------|----------------|
B|----------------|1---1---1---1---|1---1---1---1---|1---1---1---1---|
G|5---5---5---5---|0---0---0---0---|0---0---0---0---|0---0---0---0---|
D|6---6---6---6---|2---2---2---2---|2---2---2---2---|2---2---2---2---|
A|6---6---6---6---|3-------3-------|2-------2-------|0-------0-------|
E|4-------4-------|----------------|----------------|----------------|
I say hello hello hello
E|----------------|----------------|----------------|----------------|
B|4---4---4---4---|5---5---5---5---|5---5---5---5---|5---5---5---5---|
G|5---5---5---5---|5---5---5---5---|4---4---4---4---|2---2---2---2---|
D|6---6---6---6---|----------------|----------------|----------------|

E|----------------|----------------|----------------|----------------|
B|----------------|----------------|--------0---1---|----------------|
G|----------------|----------------|0---2-----------|----------------|
D|----------------|----0---2---3---|----------------|----------------|
A|----------------|3---------------|----------------|----------------|
E|----------------|----------------|----------------|----------------|




E|----------------|----------------|----------------|0---0---0---0---|
B|1---1---1---1---|1---1---1---1---|3---3---3---3---|1---1---1---1---|
G|0---0---0---0---|2---2---2---2---|3---3---3---3---|0---0---0---0---|
D|2---2---2---2---|3---3---3---3---|3---3---3---3---|------------0---|
A|2-------2-------|----------------|1-------1-------|3-------3-------|
E|----------------|1-------1-------|----------------|----------------|
I don't know why you say goodbye I say hello
E|----------------|----------------|----------------|----------------|
B|5---5---5---5---|6---6---6---6---|4---4---4---4---|5---------------|
G|4---4---4---4---|5---5---5---5---|5---5---5---5---|5---------------|
D|----------------|7---7---7---7---|6---6---6---6---|----------------|

E|----------------|----------------|----------------|----------------|
B|----------------|----------------|----------------|----------------|
G|--------0---2---|----------------|1---------------|----------------|
D|2---3-----------|----------------|----3---0-------|----------------|
A|----------------|----------------|------------3---|----------------|
E|----------------|----------------|----------------|----------------|




E|0---0---0---0---|1---1---1---1---|1---1---1---1---|----------------|
B|1---1---1---1---|3---3---3---3---|3---3---3---3---|1---1---1---1---|
G|0---0---2---0---|2---2---2---2---|2---2---2---2---|0---0---0---0---|
D|2---------------|3---3---3---3---|3---3---3---3---|2---2---2---2---|
A|----------------|----------------|----------------|3---------------|
E|----------------|1---------------|----------------|----------------|
You say yes I say no
(I say yes but I

E|----------------|----------------|----------------|----------------|
B|1---1---1---1---|3---3---3---3---|3---3---3---3---|1---1---1---1---|
G|0---0---0---0---|0---0---0---0---|0---0---0---0---|2---0---0---0---|
D|2---2---2---2---|3---3---3---3---|3---3---3---3---|2-------3---2---|
A|----------------|----------------|----------------|0---------------|
E|----------------|3---------------|----------------|----------------|
You say stop and I say go
may mean no) I can stay till it's


E|----------------|----------------|----------------|----------------|
B|1---1---1---1---|3---3---3---3---|3---3---3---3---|1---1---1---1---|
G|0---0---0---0---|0---0---0---0---|0---0---0---0---|2---2---2---2---|
D|0---2---2---2---|3---3---3---3---|3---3---3---3---|2---2---2---2---|
A|----3---2---0---|----------------|----------------|0---------------|
E|----------------|3---------------|----------------|----------------|
go go Aaaaaaaaah
time to go)
E|----------------|----------------|----------------|----------------|
B|----------------|------------3---|------------3---|5---------------|
G|----------------|----0---4-------|4---0---4-------|----------------|
D|----------------|----------------|----------------|----------------|



E|----------------|----------------|----------------|----------------|
B|1---1---1---1---|3---3---3---3---|3---3---3---3---|3---------------|
G|2---2---2---2---|0---0---0---0---|0---0---0---0---|----------------|
D|2---2---2---2---|3---3---3---3---|3---3---3---3---|----------------|
A|----------------|----------------|----------------|----------------|
E|----------------|3---------------|----------------|----------------|
Oh no You say goodbye
E|----------------|----3---3---3---|3---3---3---3---|3---------------|
B|----------------|----------------|----------------|----------------|
G|----------------|----------------|----------------|----------------|



E|----------------|----------------|----------------|----------------|
B|----------------|----------------|1---1---1---1---|1---1---1---1---|
G|----------------|----------------|0---0---0---0---|0---0---0---0---|
D|----------------|----------------|2---2---2---2---|2---2---2---2---|
A|----------------|----------------|3-------3-------|2-------2-------|
E|----------------|----------------|----------------|----------------|
and I say hello hello hello
E|----------------|3---------------|----------------|----------------|
B|----------------|----------------|5---5---5---5---|5---5---5---5---|
G|----------------|----------------|5---5---5---5---|4---4---4---4---|
D|----------------|----------------|----------------|----------------|

E|----------------|----------------|----------------|----------------|
B|----------------|----------------|----------------|--------0---1---|
G|----------------|----------------|----------------|0---2-----------|
D|----------------|----------------|----0---2---3---|----------------|
A|----------------|----------------|3---------------|----------------|
E|----------------|----------------|----------------|----------------|



E|----------------|----------------|----------------|----------------|
B|1---1---1---1---|1---1---1---1---|1---1---1---1---|----------------|
G|0---0---0---0---|0---0---0---0---|2---2---2---2---|5---5---5---5---|
D|2---2---2---2---|2---2---2---2---|3---3---3---3---|6---6---6---6---|
A|0-------0-------|----------------|----------------|6---6---6---6---|
E|----------------|3-------3-------|1-------1-------|4-------4-------|
I don't know why you say goodbye I say hello
E|----------------|----------------|----------------|----------------|
B|5---5---5---5---|5---5---5---5---|6---6---6---6---|6---6---6---6---|
G|2---2---2---2---|4---4---4---4---|5---5---5---5---|5---5---5---5---|
D|----------------|----------------|7---7---7---7---|6---6---6---6---|

E|----------------|----------------|----------------|----------------|
B|----------------|----------------|----------------|----------------|
G|----------------|--------0---2---|----------------|----------------|
D|----------------|2---3-----------|----------------|----------------|
A|----------------|----------------|----------------|----------------|
E|----------------|----------------|----------------|----------------|



E|----------------|----------------|----------------|----------------|
B|1---1---1---1---|1---1---1---1---|1---1---1---1---|1---1---1---1---|
G|0---0---0---0---|0---0---0---0---|0---0---0---0---|0---0---0---0---|
D|2---2---2---2---|2---2---2---2---|2---2---2---2---|2---2---2---2---|
A|3-------3-------|2-------2-------|0-------0-------|2-------2-------|
E|----------------|----------------|----------------|----------------|
hello hello I don't know
E|----------------|----------------|----------------|----------------|
B|5---5---5---5---|5---5---5---5---|5---5---5---5---|5---5---5---5---|
G|5---5---5---5---|4---4---4---4---|2---2---2---2---|4---4---4---4---|
D|----------------|----------------|----------------|----------------|

E|----------------|----------------|----------------|----------------|
B|----------------|--------0---1---|----------------|----------------|
G|----------------|0---2-----------|----------------|--------0---2---|
D|----0---2---3---|----------------|----------------|2---3-----------|
A|3---------------|----------------|----------------|----------------|
E|----------------|----------------|----------------|----------------|



E|----------------|----------------|----------------|----------------|
B|1---1---1---1---|3---3---3---3---|1---1---1---1---|1---1---1---1---|
G|2---2---2---2---|3---3---3---3---|0---0---0---0---|0---0---0---0---|
D|3---3---3---3---|3---3---3---3---|2---2---2---2---|2---2---2---2---|
A|----------------|1-------1-------|3-------3-------|2-------2-------|
E|1-------1-------|----------------|----------------|----------------|
why you say goodbye I say hello hello hello
E|----------------|----------------|----------------|----------------|
B|6---6---6---6---|6---6---6---6---|5---5---5---5---|5---5---5---5---|
G|5---5---5---5---|5---5---5---5---|5---5---5---5---|4---4---4---4---|
D|7---7---7---7---|6---6---6---6---|----------------|----------------|

E|----------------|----------------|----------------|----------------|
B|----------------|----------------|----------------|--------0---1---|
G|----------------|1---------------|----------------|0---2-----------|
D|----------------|----3---0-------|----0---2---3---|----------------|
A|----------------|------------3---|3---------------|----------------|
E|----------------|----------------|----------------|----------------|



E|----------------|----------------|----------------|----------------|
B|1---1---1---1---|1---1---1---1---|1---1---1---1---|4---4---4---4---|
G|0---0---0---0---|0---0---0---0---|2---2---2---2---|5---5---5---5---|
D|2---2---2---2---|2---2---2---2---|3---3---3---3---|6---6---6---6---|
A|0-------0-------|----------------|----------------|----------------|
E|----------------|3-------3-------|1-------1-------|4-------4-------|
I don't know why you say goodbye I say hello
E|----------------|----------------|----------------|----------------|
B|5---5---5---5---|5---5---5---5---|6---6---6---6---|6---6---6---6---|
G|2---2---2---2---|4---4---4---4---|5---5---5---5---|5---5---5---5---|
D|----------------|----------------|7---7---7---7---|6---6---6---6---|

E|----------------|----------------|----------------|----------------|
B|----------------|----------------|----------------|----------------|
G|----------------|--------0---2---|----------------|1---------------|
D|----------------|2---3-----------|----------------|----3---0-------|
A|----------------|----------------|----------------|------------3---|
E|----------------|----------------|----------------|----------------|


Ab Cm Cm-5 F7
E|----------------|----------------|----------------|----------------|
B|4-------4-------|4-------4-------|4-------4-------|4-------4-------|
G|5-------5-------|5-------5-------|5-------5-------|5-------5-------|
D|6-------6-------|5-------5-------|4-------4-------|3-------3-------|
A|----------------|----------------|----------------|----------------|
E|4-------4-------|3-------3-------|2-------2-------|1-------1-------|
hello
E|----------------|----------------|----------------|----------------|
B|----------------|----------------|----------------|----------------|
G|5---5---5---5---|5---5---5---5---|5---5---5---5---|5---5---5---5---|
D|6---6---6---6---|5---5---5---5---|4---4---4---4---|3---3---3---3---|

E|----------------|----------------|----------------|----------------|
B|----------------|----------------|----------------|----------------|
G|----------------|----------------|----------------|----------------|
D|----------------|----------------|----------------|----------------|
A|3-------3-------|3-------3-------|3-------3-------|3-------3-------|
E|----------------|----------------|----------------|----------------|

Coda
C¨¨¨¨¨¨¨¨¨¨¨¨¨¨¨¨¨¨¨¨¨¨¨¨¨¨¨¨¨¨¨¨¨¨¨¨¨¨¨¨¨¨¨¨¨¨¨¨¨
E|3---------------|----------------|----------------|0---0---0---0---|
B|1---------------|----------------|----------------|1---1---1---1---|
G|0---------------|----------------|----------------|----0-------0---|
D|2---------------|----------------|----------------|--------2-------|
A|3---------------|----------------|----------------|3---------------|
E|3---------------|----------------|----------------|----------------|
Heeeeeeelaaaaaaa
E|----------------|----------------|----------------|
B|5---------------|----------------|----------------|
G|5---------------|----------------|----------------|
D|----------------|----------------|----------------|

E|----------------|----------------|----------------|
B|----------------|----------------|----------------|
G|----------------|----------------|----------------|
D|----------------|----------------|----------------|
A|3---------------|----------------|----------------|
E|----------------|----------------|----------------|


E|0---0---0---0---|0---0---0---0---|0---0---0---0---|0---0---0---0---|
B|1---1---1---1---|1---1---1---1---|1---1---1---1---|1---1---1---1---|
G|----0-------0---|----0-------0---|----0-------0---|----0-------0---|
D|--------2-------|--------2-------|--------2-------|--------2-------|
A|3---------------|3---------------|3---------------|3---------------|
E|----------------|----------------|----------------|----------------|
HeeebaaaHeeello Heeeeeeelaaaaaaa ...









B Bend
R Release
/ slide up
\ slide down
H hammer-on
P pull-off
~ vibrato
+ harmonic
x Mute note
. - play note like a dot in standard notation
^ - ties two notes together

pjvill

Submitted by pjvill at Tue 06 Dec, 2005 11:59 am

Author: ?
Composer: ?
Publisher: ?
Language: English

Reactions

CommonCrawl [Bot]

Follow Muzikum