The Beatles

The Beatles
Got To Get You Into My Life Ver 2 (Guitar tab)

-------------------------------------------------------------------
THE BEATLES - GOT TO GET YOU INTO MY LIFE (Lennon/McCartney) From
REVOLVER album. Released on 5th August 1966.

-------------------------------------------------------------------

Tabbed by:PJVillanueva







I was alone, I took a ride,
I didn't know what I would find there
Another road where maybe I could see another kind of mind there

Ooh, then I suddenly see you,
Ooh, did I tell you I need you
Every single day of my life

You didn't run, you didn't lie
You knew I wanted just to hold you
And had you gone you knew in time we'd meet again
For I had told you

Ooh, you were meant to be near me
Ooh, and I want you hear me
Say we'll be together every day

Got to get you into my life

What can I do, what can I be,
When I'm with you I want to stay there
If I'm true I'll never leave
And if I do I know the way there

Ooh, then I suddenly see you,
Ooh, did I tell you I need you
Every single day of my life

Got to get you into my life
Got to get you into my life

I was alone, I took a ride,
I didn't know what I would find there
Another road where maybe I could see another kind of mind there

Then suddenly I see you,
Did I tell you I need you...






12/8



e|------ ------ ------ ------|------ ------ ------ ------|
B|----0-H1---3------0-H1-----|----1---------1------------|
G|----0-H2---0------0--------|----0---------0------0-----|
D|----0-H0---0------0-H3-----|----3---------2------------|
A|---------------------------|---------------------------|
E|3--------------------------|---------------------------|




x x x x x x x x
e|3----- ------ ------ ------|------ ------ ------ ------|
B|---------------------------|---------------------------|
G|0--------------------------|---------------------------|
D|---------------------------|---------------------------|
A|---------------------------|---------------------------|
E|---------------------------|---------------------------|

e|15---- ------ ------ ------|------ ------ ------ ------|
B|---------------------------|---------------------------|
G|---------------------------|---------------------------|
D|---------------------------|---------------------------|
A|---------------------------|---------------------------|
E|---------------------------|---------------------------|





e|3----- 3----- 3----- 3-----|3----- 3----- 3----- 3-----|
B|3------3------3------3-----|3------3------3------3-----|
G|0------0------0------0-----|0------0------0------0-----|
D|0------0------0------0-----|0------0------0------0-----|
A|---------------------------|---------------------------|
E|3------3------3------3-----|3------3------3------3-----|
I was alone, I took a ride,I didn't
know
what I would
find
e|------ ------ ------ ------|------ ------ ------ ----5-|
B|---------------------------|-------------------------6-|
G|0--------------------------|-------------------------5-|
D|---------------------------|---------------------------|
A|---------------------------|---------------------------|
E|---------------------------|---------------------------|





e|3----- 3----- 3----- 3-----|3----- 3----- 3----- 3-----|
B|1------1------1------1-----|1------1------1------1-----|
G|2------2------2------2-----|2------2------2------2-----|
D|3------3------3------3-----|3------3------3------3-----|
A|---------------------------|---------------------------|
E|---------------------------|---------------------------|
there
e|------ ------ ------ ------|------ ------ ----0- ------|
B|------------------3------1-|--------------1----------3-|
G|--------------2----------2-|-----------2-------------0-|
D|-----------3-------------3-|-------------------------0-|
A|---------------------------|---------------------------|
E|---------------------------|---------------------------|





e|3----- 3----- 3----- 3-----|3----- 3----- 3----- 3-----|
B|3------3------3------3-----|3------3------3------3-----|
G|0------0------0------0-----|0------0------0------0-----|
D|0------0------0------0-----|0------0------0------0-----|
A|---------------------------|---------------------------|
E|3------3------3------3-----|3------3------3------3-----|
Another road where
maybe I could
see another kind
of mind
e|------ ------ ------ ------|------ ------ ------ ----5-|
B|---------------------------|-------------------------6-|
G|0--------------------------|-------------------------5-|
D|---------------------------|---------------------------|
A|---------------------------|---------------------------|
E|---------------------------|---------------------------|





e|3----- 3----- 3----- 3-----|3----- 3----- 3----- 3-----|
B|1------1------1------1-----|1------1------1------1-----|
G|2------2------2------2-----|2------2------2------2-----|
D|3------3------3------3-----|3------3------3------3-----|
A|---------------------------|---------------------------|
E|---------------------------|---------------------------|
there Ooh,
e|------ ------ ------ ------|------ ------ ----0- ----2-|
B|------------------3------1-|--------------1----------3-|
G|--------------2----------2-|-----------2-------------4-|
D|-----------3-------------3-|---------------------------|
A|---------------------------|---------------------------|
E|---------------------------|---------------------------|





e|7----- 7----- 7----- 7-----|7----- 7----- ------ ------|
B|7------7------7------7-----|7------7------7------7-----|
G|7------7------7------7-----|7------7------7------7-----|
D|9------9------8------8-----|7------7------6------6-----|
A|9------9------9------9-----|9------9------7------7-----|
E|7------7------7------7-----|7------7-------------------|
then
I suddenly see you, Ooh,
e|------ 2----- 2----- 2-----|2----- 2----- 2------2---2-|
B|-------3------3------3-----|3------3------3------3---3-|
G|-------4------3------3-----|2------2------1------1---4-|
D|---------------------------|---------------------------|
A|---------------------------|---------------------------|
E|---------------------------|---------------------------|





e|7----- 7----- 7----- 7-----|7----- 7----- ------ ------|
B|7------7------7------7-----|7------7------7------7-----|
G|7------7------7------7-----|7------7------7------7-----|
D|9------9------8------8-----|7------7------6------6-----|
A|9------9------9------9-----|9------9------7------7-----|
E|7------7------7------7-----|7------7-------------------|
did I tell you I need you
e|------ 2----- 2----- 2-----|2----- 2----- 2----- 2-----|
B|-------3------3------3-----|3------3------3------3-----|
G|-------4------3------3-----|2------2------1------1-----|
D|---------------------------|---------------------------|
A|---------------------------|---------------------------|
E|---------------------------|---------------------------|





e|0----- 0----- 0----- 0-----|0----- 0----- 2----- 2-----|
B|1------1------0------0-----|1------1------3------3-----|
G|0------0------0------0-----|2------2------2------2-----|
D|2------2------2------2-----|2------2------0------0-----|
A|3------3------2------2-----|0------0-------------------|
E|---------------------------|---------------------------|
Every single day of my
e|3----- 3----- 3----- 3-----|3----- 3----- 5----- 5-----|
B|5------5------5------5-----|5------5------7------7-----|
G|5------5------4------4-----|2------2------7------7-----|
D|---------------------------|---------------------------|
A|---------------------------|---------------------------|
E|---------------------------|---------------------------|




x x x x x x X X X X X X
e|3----- ------ ------ ------|------ ------ ------ ------|
B|3--------------------------|---------------------------|
G|0--------------------------|---------------------------|
D|0--------------------------|---------------------------|
A|---------------------------|---------------------------|
E|3--------------------------|---------------------------|
life
e|7----- ------ ------ ------|------ ------ ------ ------|
B|8--------------------------|---------------------------|
G|7--------------------------|---------------------------|
D|---------------------------|---------------------------|
A|---------------------------|---------------------------|
E|---------------------------|---------------------------|





e|3----- 3----- 3----- 3-----|3----- 3----- 3----- 3-----|
B|3------3------3------3-----|3------3------3------3-----|
G|0------0------0------0-----|0------0------0------0-----|
D|0------0------0------0-----|0------0------0------0-----|
A|---------------------------|---------------------------|
E|3------3------3------3-----|3------3------3------3-----|
You didn't
run, you didn't
lie You knew
I wanted just
to hold
e|------ ------ ------ ------|------ ------ ------ ----5-|
B|---------------------------|-------------------------6-|
G|0--------------------------|-------------------------5-|
D|---------------------------|---------------------------|
A|---------------------------|---------------------------|
E|---------------------------|---------------------------|





e|3----- 3----- 3----- 3-----|3----- 3----- 3----- 3-----|
B|1------1------1------1-----|1------1------1------1-----|
G|2------2------2------2-----|2------2------2------2-----|
D|3------3------3------3-----|3------3------3------3-----|
A|---------------------------|---------------------------|
E|---------------------------|---------------------------|
you
e|------ ------ ------ ------|------ ------ ----0- ------|
B|------------------3------1-|--------------1----------3-|
G|--------------2----------2-|-----------2-------------0-|
D|-----------3-------------3-|-------------------------0-|
A|---------------------------|---------------------------|
E|---------------------------|---------------------------|





e|3----- 3----- 3----- 3-----|3----- 3----- 3----- 3-----|
B|3------3------3------3-----|3------3------3------3-----|
G|0------0------0------0-----|0------0------0------0-----|
D|0------0------0------0-----|0------0------0------0-----|
A|---------------------------|---------------------------|
E|3------3------3------3-----|3------3------3------3-----|
And had you
gone you knew in
time we'd
meet again
for I had told
e|------ ------ ------ ------|------ ------ ------ ----5-|
B|---------------------------|-------------------------6-|
G|0--------------------------|-------------------------5-|
D|---------------------------|---------------------------|
A|---------------------------|---------------------------|
E|---------------------------|---------------------------|





e|3----- 3----- 3----- 3-----|3----- 3----- 3----- 3-----|
B|1------1------1------1-----|1------1------1------1-----|
G|2------2------2------2-----|2------2------2------2-----|
D|3------3------3------3-----|3------3------3------3-----|
A|---------------------------|---------------------------|
E|---------------------------|---------------------------|
you Ooh,
e|------ ------ ------ ------|------ ------ ----0- ----2-|
B|------------------3------1-|--------------1----------3-|
G|--------------2----------2-|-----------2-------------4-|
D|-----------3-------------3-|---------------------------|
A|---------------------------|---------------------------|
E|---------------------------|---------------------------|





e|7----- 7----- 7----- 7-----|7----- 7----- ------ ------|
B|7------7------7------7-----|7------7------7------7-----|
G|7------7------7------7-----|7------7------7------7-----|
D|9------9------8------8-----|7------7------6------6-----|
A|9------9------9------9-----|9------9------7------7-----|
E|7------7------7------7-----|7------7-------------------|
You were meant to be near me Ooh,
e|------ 2----- 2----- 2-----|2----- 2----- 2----- 2---2-|
B|-------3------3------3-----|3------3------3------3---3-|
G|-------4------3------3-----|2------2------1------1---4-|
D|---------------------------|---------------------------|
A|---------------------------|---------------------------|
E|---------------------------|---------------------------|





e|7----- 7----- 7----- 7-----|7----- 7----- ------ ------|
B|7------7------7------7-----|7------7------7------7-----|
G|7------7------7------7-----|7------7------7------7-----|
D|9------9------8------8-----|7------7------6------6-----|
A|9------9------9------9-----|9------9------7------7-----|
E|7------7------7------7-----|7------7-------------------|
and I want you
to hear me
e|------ 2----- 2----- 2-----|2----- 2----- 2----- 2-----|
B|-------3------3------3-----|3------3------3------3-----|
G|-------4------3------3-----|2------2------1------1-----|
D|---------------------------|---------------------------|
A|---------------------------|---------------------------|
E|---------------------------|---------------------------|





e|0----- 0----- 0----- 0-----|0----- 0----- 2----- 2-----|
B|1------1------0------0-----|1------1------3------3-----|
G|0------0------0------0-----|2------2------2------2-----|
D|2------2------2------2-----|2------2------0------0-----|
A|3------3------2------2-----|0------0-------------------|
E|---------------------------|---------------------------|
Say we'll be together every
e|3----- 3----- 3----- 3-----|3----- 3----- 5----- 5-----|
B|5------5------5------5-----|5------5------7------7-----|
G|5------5------4------4-----|2------2------7------7-----|
D|---------------------------|---------------------------|
A|---------------------------|---------------------------|
E|---------------------------|---------------------------|




x x x x x x X X X X X X
e|3----- ------ ------ ------|------ ------ ------ ------|
B|3--------------------------|---------------------------|
G|0--------------------------|---------------------------|
D|0--------------------------|---------------------------|
A|---------------------------|---------------------------|
E|3--------------------------|---------------------------|
day
e|7----- ------ ------ ------|------ ------ ------ ------|
B|8--------------------------|---------------------------|
G|7--------------------------|---------------------------|
D|---------------------------|---------------------------|
A|---------------------------|---------------------------|
E|---------------------------|---------------------------|





e|3----- 3----- 3----- 3-----|3----- 3----- 3----- 3-----|
B|3------3------3------3-----|5------5------5------5-----|
G|0------0------0------0-----|5------5------5------5-----|
D|0------0------0------0-----|5------5------5------5-----|
A|---------------------------|3------3------3------3-----|
E|3------3------3------3-----|---------------------------|
Got to get you into my life
e|------ ------ ------ ------|----3- 5---6- ------ ----3-|
B|---------------------------|----5--5---5--3---6------5-|
G|---------------------------|----5--5---5--5---5------5-|
D|---------------------------|---------------------------|
A|---------------------------|---------------------------|
E|---------------------------|---------------------------|





e|3----- 3----- 3----- 3-----|------ 5---6- ------ ----3-|
B|5------5------5------5-----|----8-------------6------3-|
G|5------5------5------5-----|----7---------7----------0-|
D|5------5------5------5-----|0-------------7------------|
A|3------3------3------3-----|---------------------------|
E|---------------------------|---------------------------|

e|------ ------ ------ ------|----3- 5---6- ------ ----3-|
B|---------------------------|----5--5---5--3---6------3-|
G|---------------------------|----5--5---5--5---5------4-|
D|---------------------------|---------------------------|
A|---------------------------|---------------------------|
E|---------------------------|---------------------------|





e|3----- 3----- 3----- 3-----|3----- 3----- 3----- 3-----|
B|3------3------3------3-----|3------3------3------3-----|
G|0------0------0------0-----|0------0------0------0-----|
D|0------0------0------0-----|0------0------0------0-----|
A|---------------------------|---------------------------|
E|3------3------3------3-----|3------3------3------3-----|
What
can I do, what
can I be, When
I'm with you
I want to stay
e|------ ------ ------ ------|------ ------ ------ ----5-|
B|---------------------------|-------------------------6-|
G|0--------------------------|-------------------------5-|
D|---------------------------|---------------------------|
A|---------------------------|---------------------------|
E|---------------------------|---------------------------|





e|3----- 3----- 3----- 3-----|3----- 3----- 3----- 3-----|
B|1------1------1------1-----|1------1------1------1-----|
G|2------2------2------2-----|2------2------2------2-----|
D|3------3------3------3-----|3------3------3------3-----|
A|---------------------------|---------------------------|
E|---------------------------|---------------------------|
there
e|------ ------ ------ ------|------ ------ ----0- ------|
B|------------------3------1-|--------------1----------3-|
G|--------------2----------2-|-----------2-------------0-|
D|-----------3-------------3-|-------------------------0-|
A|---------------------------|---------------------------|
E|---------------------------|---------------------------|





e|3----- 3----- 3----- 3-----|3----- 3----- 3----- 3-----|
B|3------3------3------3-----|3------3------3------3-----|
G|0------0------0------0-----|0------0------0------0-----|
D|0------0------0------0-----|0------0------0------0-----|
A|---------------------------|---------------------------|
E|3------3------3------3-----|3------3------3------3-----|
If I'm true I'll
never
leave And if
I do I know
the way
e|------ ------ ------ ------|------ ------ ------ ----5-|
B|---------------------------|-------------------------6-|
G|0--------------------------|-------------------------5-|
D|---------------------------|---------------------------|
A|---------------------------|---------------------------|
E|---------------------------|---------------------------|





e|3----- 3----- 3----- 3-----|3----- 3----- 3----- 3-----|
B|1------1------1------1-----|1------1------1------1-----|
G|2------2------2------2-----|2------2------2------2-----|
D|3------3------3------3-----|3------3------3------3-----|
A|---------------------------|---------------------------|
E|---------------------------|---------------------------|
there Ooh,
e|------ ------ ------ ------|------ ------ ----0- ----2-|
B|------------------3------1-|--------------1----------3-|
G|--------------2----------2-|-----------2-------------4-|
D|-----------3-------------3-|---------------------------|
A|---------------------------|---------------------------|
E|---------------------------|---------------------------|





e|7----- 7----- 7----- 7-----|7----- 7----- ------ ------|
B|7------7------7------7-----|7------7------7------7-----|
G|7------7------7------7-----|7------7------7------7-----|
D|9------9------8------8-----|7------7------6------6-----|
A|9------9------9------9-----|9------9------7------7-----|
E|7------7------7------7-----|7------7-------------------|
then
I suddenly see you, Ooh,
e|------ 2----- 2----- 2-----|2----- 2----- 2----- 2---2-|
B|-------3------3------3-----|3------3------3------3---3-|
G|-------4------3------3-----|2------2------1------1---4-|
D|---------------------------|---------------------------|
A|---------------------------|---------------------------|
E|---------------------------|---------------------------|





e|7----- 7----- 7----- 7-----|7----- 7----- ------ ------|
B|7------7------7------7-----|7------7------7------7-----|
G|7------7------7------7-----|7------7------7------7-----|
D|9------9------8------8-----|7------7------6------6-----|
A|9------9------9------9-----|9------9------7------7-----|
E|7------7------7------7-----|7------7-------------------|
did I tell you I need you
e|------ 2----- 2----- 2-----|2----- 2----- 2----- 2-----|
B|-------3------3------3-----|3------3------3------3-----|
G|-------4------3------3-----|2------2------1------1-----|
D|---------------------------|---------------------------|
A|---------------------------|---------------------------|
E|---------------------------|---------------------------|





e|0----- 0----- 0----- 0-----|0----- 0----- 2----- 2-----|
B|1------1------0------0-----|1------1------3------3-----|
G|0------0------0------0-----|2------2------2------2-----|
D|2------2------2------2-----|2------2------0------0-----|
A|3------3------2------2-----|0------0-------------------|
E|---------------------------|---------------------------|
Every single day of my
e|3----- 3----- 3----- 3-----|3----- 3----- 5----- 5-----|
B|5------5------5------5-----|5------5------7------7-----|
G|5------5------4------4-----|2------2------7------7-----|
D|---------------------------|---------------------------|
A|---------------------------|---------------------------|
E|---------------------------|---------------------------|





x x x x x x X X X X X X
e|3----- ------ ------ ------|------ ------ ------ ------|
B|3--------------------------|---------------------------|
G|0--------------------------|---------------------------|
D|0--------------------------|---------------------------|
A|---------------------------|---------------------------|
E|3--------------------------|---------------------------|
life
e|7----- ------ ------ ------|------ ------ ------ ------|
B|8--------------------------|---------------------------|
G|7--------------------------|---------------------------|
D|---------------------------|---------------------------|
A|---------------------------|---------------------------|
E|---------------------------|---------------------------|





e|3----- 3----- 3----- 3-----|3----- 3----- 3----- 3-----|
B|3------3------3------3-----|5------5------5------5-----|
G|0------0------0------0-----|5------5------5------5-----|
D|0------0------0------0-----|5------5------5------5-----|
A|---------------------------|3------3------3------3-----|
E|3------3------3------3-----|---------------------------|
Got to get you into my life
e|------ ------ ------ ------|----3- 5---6- ------ ----3-|
B|---------------------------|----5--5---5--3---6------5-|
G|---------------------------|----5--5---5--5---5------5-|
D|---------------------------|---------------------------|
A|---------------------------|---------------------------|
E|---------------------------|---------------------------|





e|3----- 3----- 3----- 3-----|------ 5---6- ------ ----3-|
B|5------5------5------5-----|----8-------------6------3-|
G|5------5------5------5-----|----7---------7----------0-|
D|5------5------5------5-----|0-------------7------------|
A|3------3------3------3-----|---------------------------|
E|---------------------------|---------------------------|

e|------ ------ ------ ------|----3- 5---6- ------ ----3-|
B|---------------------------|----5--5---5--3---6------3-|
G|---------------------------|----5--5---5--5---5------4-|
D|---------------------------|---------------------------|
A|---------------------------|---------------------------|
E|---------------------------|---------------------------|





e|3----- 3----- 3----- 3-----|3----- 3----- 3----- 3-----|
B|3------3------3------3-----|3------3------3------3-----|
G|0------0------0------0-----|0------0------0------0-----|
D|---------------------------|---------------------------|
A|---------------------------|---------------------------|
E|---------------------------|---------------------------|





e|----0-H2---3- ------ 1-----|------ ------ ------ ------|
B|----3------3---------1-----|--1-----------1----1H3-----|
G|0---0-H2---4------0--0-----|--0-----------0------0-----|
D|---------------------------|--2B3-------3R2------------|
A|---------------------------|---------------------------|
E|---------------------------|---------------------------|





e|------ ------ ----3- ------|------ ------ ----3- ------|
B|3------3------3------------|3------3------3------------|
G|0------0------0------------|0------0------0------------|
D|0------0------0------------|2------2------2------------|
A|---------------------------|3------3------3------3-----|
E|3------3------3------3-----|---------------------------|
Got to get you into my life
e|------ ------ ------ ------|----3- 5---6- ------ ----3-|
B|---------------------------|----5--5---5--3---6------5-|
G|---------------------------|----5--5---5--5---5------5-|
D|---------------------------|---------------------------|
A|---------------------------|---------------------------|
E|---------------------------|---------------------------|





e|------ ------ ----3- ------|------ ------ ------ ------|
B|3------3------3------------|3--------------------------|
G|0------0------0------------|0--------------------------|
D|2------2------2------------|0--------------------------|
A|3------3------3------3-----|---------------------------|
E|---------------------------|---------------------------|

e|------ ------ ------ ------|----3- 5---6- ------ ----3-|
B|---------------------------|----5--5---5--3---6------3-|
G|---------------------------|----5--5---5--5---5------4-|
D|---------------------------|---------------------------|
A|---------------------------|---------------------------|
E|---------------------------|---------------------------|





e|------ ------ ----3- ------|------ ----3- ------ ------|
B|3------3-------------------|3--------------------3-----|
G|0------0-----------------0-|------------------0--------|
D|0------0-------------------|---------------------------|
A|---------------------------|---------------------------|
E|3------3------3------3-----|3------3------3------3-----|
I was alone,
e|------ ------ ------ ------|------ ------ ------ ------|
B|---------------------------|---------------------------|
G|---------------------------|---------------------------|
D|---------------------------|---------------------------|
A|---------------------------|---------------------------|
E|---------------------------|---------------------------|





e|------ ------ ------ ------|------ ------ ------ ------|
B|---------------------------|---------------------------|
G|---------------------------|---------------------------|
D|---------------------------|---------------------------|
A|---------------------------|---------------------------|
E|---------------------------|---------------------------|
I took a ride,I didn't
know what I would
find there



e|10---- 10---- 10---- 10----|10---- 10---- 10---- 10----|
B|12-----12-----12-----12----|12-----12-----12-----12----|
G|12-----12-----12-----12----|12-----12-----12-----12----|
D|---------------------------|---------------------------|
A|---------------------------|---------------------------|
E|---------------------------|---------------------------|
Another road where
maybe I could see
another
e|----7- 8---10 ----7- 8-----|----5- ------ 3----- 7-----|
B|----8--10--12-----8--10----|----6---------5------8-----|
G|----0--0---0------0--0-----|----0---------0------0-----|
D|---------------------------|---------------------------|
A|---------------------------|---------------------------|
E|---------------------------|---------------------------|

e|15---- ------ ------ ------|------ ------ ------ ------|
B|---------------------------|---------------------------|
G|---------------------------|---------------------------|
D|---------------------------|---------------------------|
A|---------------------------|---------------------------|
E|---------------------------|---------------------------|


-
-
-
-
e|10---- 10---- 10---- 10----|10---- 10---- 10---- ------|
B|12-----12-----12-----12----|12-----12-----12-----------|
G|12-----12-----12-----12----|12-----12-----12-----------|
D|---------------------------|---------------------------|
A|---------------------------|---------------------------|
E|---------------------------|---------------------------|
kind of mind there Then suddenly
e|----7- 8---10 ----7- 8-----|----5- ------ 3----- 7-----|
B|----8--10--12-----8--10----|----6---------5------8-----|
G|----0--0---0------0--0-----|----0---------0------0-----|
D|---------------------------|---------------------------|
A|---------------------------|---------------------------|
E|---------------------------|---------------------------|

e|15---- ------ ------ ------|------ ------ ------ ------|
B|---------------------------|---------------------------|
G|---------------------------|---------------------------|
D|---------------------------|---------------------------|
A|---------------------------|---------------------------|
E|---------------------------|---------------------------|
..........................Fade.........................



- -
-
-
e|------ ------ ------ ------|10---- 10---- 10---- 10----|
B|---------------------------|12-----12-----12-----12----|
G|---------------------------|12-----12-----12-----12----|
D|---------------------------|---------------------------|
A|---------------------------|---------------------------|
E|---------------------------|---------------------------|
I see you Did I tell
e|----7- 8---10 ----7- 8-----|----5- ------ 3----- 7-----|
B|----8--10--12-----8--10----|----6---------5------8-----|
G|----0--0---0------0--0-----|----0---------0------0-----|
D|---------------------------|---------------------------|
A|---------------------------|---------------------------|
E|---------------------------|---------------------------|

e|15---- ------ ------ ------|------ ------ ------ ------|
B|---------------------------|---------------------------|
G|---------------------------|---------------------------|
D|---------------------------|---------------------------|
A|---------------------------|---------------------------|
E|---------------------------|---------------------------|
.......................................................



-
-
-
e|10---- 10---- 10---- 10----|------ ------ ------ ------|
B|12-----12-----12-----12----|---------------------------|
G|12-----12-----12-----12----|---------------------------|
D|---------------------------|---------------------------|
A|---------------------------|---------------------------|
E|---------------------------|---------------------------|
you I need you every single
e|----7- 8---10 ----7- 8-----|----5- ------ 3----- 7-----|
B|----8--10--12-----8--10----|----6---------5------8-----|
G|----0--0---0------0--0-----|----0---------0------0-----|
D|---------------------------|---------------------------|
A|---------------------------|---------------------------|
E|---------------------------|---------------------------|

e|15---- ------ ------ ------|------ ------ ------ ------|
B|---------------------------|---------------------------|
G|---------------------------|---------------------------|
D|---------------------------|---------------------------|
A|---------------------------|---------------------------|
E|---------------------------|---------------------------|
.......................................................








B Bend
R Release
/ Slide up
\ Slide down
H Hammer-on
P Pull-off
~ Vibrato
+ Harmonic
x Mute note
. Play note like a dot in standard notation
^ Ties two notes together
(. Pause

pjvill

Submitted by pjvill at Mon 05 Dec, 2005 5:31 am

Author: ?
Composer: ?
Publisher: ?
Language: English

Reactions

CommonCrawl [Bot]

Follow Muzikum