The Beatles

The Beatles
Good Day Sunshine Ver 2 (Guitar tab)

------------------------------------------------------------------
THE BEATLES - GOOD DAY SUNSHINE (Lennon/McCartney) From REVOLVER
album. Released on 5th August 1966.

------------------------------------------------------------------

Tabbed by:PJVillanueva




Chords:

E 022 022100
B 2444 x24442 799877
F# 244 244322
A x022 x02220
F#7 2x23 242352
B7 x212
D xx0232






E

Chorus

B F# B F# E
Good day sunshine, good day sunshine, good day sunshine


Verse

A F#7 B7
I need to laugh and when the sun is out
E A
I've got someting I can laugh about
F#7 B7
I feel good in a special way
E A
I'm in love, and it's a sunny day


Chorus

B F# B F# E
Good day sunshine, Good day sunshine, Good day sunshine


Verse

A F#7 B7
We take a walk, the sun is shining down
E A
burns my feet as they touch the ground.



Solo D B E A D


Chorus

B F# B F# E
Good day sunshine, Good day sunshine, Good day sunshine


Verse

A F#7 B7
And then we lie beneath a shady tree
E A
I love her and she's loving me
F#7 B7
She feels good, she knows she's looking fine
E A
I'm so proud to know that she is mine



Chorus

B F# B F# E
Good day sunshine, Good day sunshine, Good day sunshine
B F# B F# E
Good day sunshine, Good day sunshine, Good day sunshine


Ending

F
Good day sunshine Good day sunshine Good day sunshine.............
Good day sunshine Good day sunshine Good day sunshine...







Intro


e|------ ------ ------ ------|------ ------ ------ ------|
B|---------------------------|---------------------------|
G|---------------------------|---------------------------|
D|2------2------2------2-----|2------2------2------2-----|
A|2------2------2------2-----|2------2------2------2-----|
E|0------0------0------0-----|0------0------0------0-----|
.........................2 times........................


Chorus


e|------ ------ ------ ------|------ ------ ------ ------|
B|---------------------------|---------------------------|
G|4------4------4------------|---------------------------|
D|4------4------4------4-----|4------4------4------9-----|
A|2------2------2------4-----|4------4------4------9-----|
E|---------------------2-----|2------2------2--/---7-----|



e|------ ------ ------ ------|------ ------ ------ ------|
B|---------------------------|---------------------------|
G|---------------------------|---------------------------|
D|9------9------9------4-----|4------4------4------9-----|
A|9------9------9------4-----|4------4------4------9-----|
E|7------7------7------2-----|2------2------2--/---7-----|



e|------ ------ ------ ------|------ ------ ------ ------|
B|---------------------------|---------------------------|
G|---------------------------|---------------------------|
D|2------2------2------2-----|2------2------2------------|
A|2------2------2------2-----|2------2------2------------|
E|0------0------0------0-----|0------0------0------------|



Verse


e|------ ------ ------ ------|------ ------ ------ ------|
B|---------------------------|---------------------------|
G|2------2------3------3-----|2------2------2------2-----|
D|2------2------2------2-----|1------1------1------1-----|
A|0------0-------------------|2------2------2------2-----|
E|---------4-3--2------2-----|---------------------------|



e|------ ------ ------ ------|------ ------ ------ ------|
B|---------------------------|---------------------------|
G|---------------------------|2------2------2------2-----|
D|2-------2-----2------2-----|2------2------2----2-2-----|
A|2-------2-----2----2-2-----|0----0-3-H-4---------3-H-4-|
E|0----0- 3-H-4--------3-H-4-|---------------------------|



e|------ ------ ------ ------|------ ------ ------ ------|
B|---------------------------|---------------------------|
G|2------2------3------3-----|2------2------2------2-----|
D|2------2------2------2-----|1------0-H-1--4----4-0-H-1-|
A|0------0-------------------|2----2-2------2------2-----|
E|---------4-3--2------2-----|---------------------------|




e|------ ------ ------ ------|------ ------ ------ ------|
B|---------------------------|---------------------------|
G|---------------------------|2------2------2------2-----|
D|2-------2-----2------2-----|2------2------2------2-----|
A|2-------2-----2----2-2-----|0----0-3-H-4-------0-3-H-4-|
E|0----0- 3-H-4--------3-H-4-|---------------------------|






Solo

e|------ ------ ------ ------|------ --0-1- 2---1- 0-----|
B|---------------------0-1-2-|3------3-----------------4-|
G|-----------------2-3-------|---------------------------|
D|---------------------------|---------------------------|
A|---------------------------|---------------------------|
E|---------------------------|---------------------------|




e|4---5- 6----7 7-7-7-7 7-7--|----5- ------ ------ ------|
B|5---7--8-/-9-9-9-9-9-9-9-9-|------------8-8-8-8-8-8-8--|
G|---------------------------/6----------6-6-6-6-6-6-6-6-|
D|---------------------------|---------------------------|
A|---------------------------|---------------------------|
E|---------------------------|---------------------------|


¨¨¨¨
e|------ ------ ------ ------|------ ------ ------ ------|
B|7----5------3--------2---3-|4--------------------------|
G|7----6-------------2-------|---------------------------|
D|--7---------4--------------|---------------------------|
A|---------------------------|---------------------------|
E|---------------------------|---------------------------|







Last chorus

e|------ ------ ------ ------|------ ------ ------ ------|
B|---------------------------|---------------------------|
G|4------4------4------------|---------------------------|
D|4------4------4------4-----|4------4------4------9-----|
A|2------2------2------4-----|4------4------4------9-----|
E|---------------------2-----|2------2------2---/--7-----|
Good day sun.......shine
....................2times............................


e|------ ------ ------ ------|------ ------ ------|
B|---------------------------|--------------------|
G|---------------------------|--------------------|
D|2------2------2------2-----|2------2------2-----|
A|2------2------2------2-----|2------2------2-----|
E|0------0------0------0-----|0------0------0-----|
Good day sun......shine



e|------ ------ ------ ------|------ ------ ------ ------|
B|---------------------------|---------------------------|
G|4------4------4------------|---------------------------|
D|4------4------4------4-----|4------4------4------9-----|
A|2------2------2------4-----|4------4------4------9-----|
E|---------------------2-----|2------2------2---/--7-----|
Good day sun.......shine
......................2times.......................


e|------ ------ ------ ------|------ ------ ------|
B|---------------------------|--------------------|
G|---------------------------|--------------------|
D|2------2------2------2-----|2------2------2-----|
A|2------2------2------2-----|2------2------2-----|
E|0------0------0------0-----|0------0------0-----|
Good day sun......shine


Ending


e|------ ------ ------ ------|------ ------ ------ ------|
B|---------------------------|---------------------------|
G|2------2------2------2-----|2------2------2------2-----|
D|3------3------3------3-----|3------3------3------3-----|
A|3------3------3------3-----|3------3------3------3-----|
E|1------1------1------1-----|1------1------1------1-----|
Good day sun.......shine
Good day sun...



e|------ ------ ------ ------|------ ------ ------ ------|
B|---------------------------|---------------------------|
G|2------2------2------2-----|2------2------2------2-----|
D|3------3------3------3-----|3------3------3------3-----|
A|3------3------3------3-----|3------3------3------3-----|
E|1------1------1------1-----|1------1------1------1-----|
Good day sun.......shine
Good day sun...



e|------ ------ ------ ------|------ ------ ------ ------|
B|---------------------------|---------------------------|
G|2------2------2------2-----|2------2------2------2-----|
D|3------3------3------3-----|3------3------3------3-----|
A|3------3------3------3-----|3------3------3------3-----|
E|1------1------1------1-----|1------1------1------1-----|
Good day sun......shine........Fade.......
...shine Good day.............







B Bend
R Release
/ Slide up
\ Slide down
H Hammer-on
P Pull-off
~ Vibrato
+ Harmonic
x Mute note
. Play note like a dot in standard notation
^ Ties two notes together
(. Pause

pjvill

Submitted by pjvill at Mon 05 Dec, 2005 5:30 am

Author: ?
Composer: ?
Publisher: ?
Language: English

Reactions

CommonCrawl [Bot]

Follow Muzikum