The Beatles

The Beatles
Glass Onion Ver 2 (Guitar tab)

--------------------------------------------------------------------

THE BEATLES - GLASS ONION (Lennon/McCartney) From the WHITE ALBUM.
Released on 22nd November 1968.


--------------------------------------------------------------------

Tabbed by:PJVillanueva





I told you about strawberry fields
You know the place where nothing is real
Well here's another place you can go
Where everything flows.
Looking through the bent backed tulips
To see how the other half live
Looking through a glass onion.

I told you about the walrus and me-man
You know that we're as close as can be-man
Well here's another clue for you all
The walrus was Paul.
Standing on the cast iron shore-yeah
Lady Madonna trying to make ends meet-yeah
Looking through a glass onion.

I told you about the fool on the hill
I tell you man he living there still
Well here's another place you can be
Listen to me.
Fixing a hole in the ocean
Trying to make a dove-tail joint-yeah
Loking through a glass onion.





x x x x

e|------- ------- ------- -------|------- ------- ------- -------|
B|-------------------------------|-------------------------------|
G|-------------------------------|-------------------------------|
D|-------------------------------|-------------------------------|
A|-------------------------------|-------------------------------|
E|-------------------------------|-------------------------------|




Am F7
e|0------ 0---0-- 0---0-- 0------|1------ 1------ 0---0-- 0---0--|
B|1-------1---1---1---1---1------|4-------4-------4---4---4---4--|
G|2-------2---2---2---2---2------|2-------2-------2---2---2---2--|
D|2-------2---2---2---2---2------|1-------1-------1---1---1---1--|
A|0-------0---0---0---0---0------|3-------3-------3---3---3---3--|
E|-------------------------------|1-------1-------1---1---1---1--|
I told you about strawberry fields
e|------- 5------ ------- 5------|------- ----8-8 8---8-- 8------|
B|--------5---------------5------|------------6-6-6---6---6------|
G|--------5---------------5------|-------------------------------|
D|-------------------------------|-------------------------------|
A|-------------------------------|-------------------------------|
E|-------------------------------|-------------------------------|



Am F7
e|0------ 0---0-- 0---0-- 0------|1---1-- 1---1-- 1---1-- 1---1--|
B|1-------1---1---1---1---1------|4---4---4---4---4---4---4---4--|
G|2-------2---2---2---2---2------|2---2---2---2---2---2---2---2--|
D|2-------2---2---2---2---2------|1---1---1---1---1---1---1---1--|
A|0-------0---0---0---0---0------|3---3---3---3---3---3---3---3--|
E|-------------------------------|1---1---1---1---1---1---1---1--|
You know the place where nothing is real
e|------- 5------ ------- 5------|------- ----8-- ----8-- 8------|
B|--------5---------------5------|------------6-------6---6------|
G|--------5---------------5------|-------------------------------|
D|-------------------------------|-------------------------------|
A|-------------------------------|-------------------------------|
E|-------------------------------|-------------------------------|




Am Gm
e|0------ 0---0-- 0---0-- 0------|3------ 3---3-- 3---3-- 3------|
B|1-------1---1---1---1---1------|3-------3---3---3---3---3------|
G|2-------2---2---2---2---2------|3-------3---3---3---3---3------|
D|2-------2---2---2---2---2------|5-------5---5---5---5---5------|
A|0-------0---0---0---0---0------|5-------5---5---5---5---5------|
E|-------------------------------|3-------3---3---3---3---3------|
Well here's another place you can go
e|------- 5------ ------- 5------|------- 10----- ------- 10-----|
B|--------5---------------5------|--------11--------------11-----|
G|--------5---------------5------|--------10--------------10-----|
D|-------------------------------|-------------------------------|
A|-------------------------------|-------------------------------|
E|-------------------------------|-------------------------------|
Gm
e|------- ------- ------- -------|3------ ------- /--------------|
B|-------------------------------|3---------------/--------------|
G|-------------------------------|3---------------/--------------|
D|-------------------------------|5---------------/--------------|
A|-------------------------------|5---------------/--------------|
E|-------------------------------|3---------------/--------------|




C7 Gm
e|3------ 3---3-- 3---3-- 3------|3------ 3------ 3---3-- 3------|
B|5-------5---5---5---5---5------|3-------3-------3---3---3------|
G|3-------3---3---3---3---3------|3-------3-------3---3---3------|
D|5-------5---5---5---5---5------|5-------5-------5---5---5------|
A|3-------3---3---3---3---3------|5-------5-------5---5---5------|
E|-------------------------------|3-------3-------3---3---3------|
Where everything flows.
e|------- 8------ ------- 8------|------- 10----- ------- 10-----|
B|-------10--------------10------|--------11--------------11-----|
G|--------9---------------9------|--------10--------------10-----|
D|-------------------------------|-------------------------------|
A|-------------------------------|-------------------------------|
E|-------------------------------|-------------------------------|
C13 Gm
e|8------ ------- ------- 8--\---|------- ------- ------- -------|
B10----------------------10--\---|3------------------------------|
G|9-----------------------9--\---|3------------------------------|
D|8-----------------------8--\---|5------------------------------|
A10----------------------10--\---|5------------------------------|
E|8-----------------------8--\---|3------------------------------|




C7 F7 D7
e|3------ 3------ 3---3-- 3---1--|------- 1------ 1---1-- 1------|
B|5-------5-------5---5---5---4--|--------4-------4---4---4---3--|
G|3-------3-------3---3---3---2--|--------2-------2---2---2---5--|
D|5-------5-------5---5---5---1--|--------1-------1---1---1---4--|
A|3-------3-------3---3---3---3--|--------3-------3---3---3---5--|
E|----------------------------1--|--------1-------1---1---1------|
Looking through the bent backed tulips
e|------- 8------ 8---8-- ----8--|------- ------- 8------ ---10--|
B|--------8-------8---8------10--|---------------10----------10--|
G|--------9-------9---9-------8--|----------------8----------11--|
D|-------10------10--10------10--|---------------10----------10--|
A|----------------------------8--|----------------8----------12--|
E|-------------------------------|---------------------------10--|
C5 F7 D7-9
e|------- ------- ------- -------|------- ------- ------- -------|
B|----------------------------6--|----------------6---6-------4--|
G|5---------------------------5--|----------------5---5-------5--|
D|5---------------------------7--|----------------7---7-------4--|
A|3---------------------------6--|----------------6---6-------5--|
E|-------------------------------|-------------------------------|




F7 D7
e|------- ------- ------- ----1--|------- 1---1-- 1---1-- -------|
B|--------3-------3---3-------4--|--------4---4---4---4-------3--|
G|--------5-------5---5-------2--|--------2---2---2---2-------5--|
D|--------4-------4---4-------1--|--------1---1---1---1-------4--|
A|--------5-------5---5-------3--|--------3---3---3---3-------5--|
E|----------------------------1--|--------1---1---1---1----------|
To see how the other half live
e|------- ------- 10-10-- ----8--|------- ------- 8------ ---10--|
B|----------------10-10------10--|---------------10----------10--|
G|----------------11-11-------8--|----------------8----------11--|
D|----------------10-10------10--|---------------10----------10--|
A|----------------12-12-------8--|----------------8----------12--|
E|----------------10-10----------|---------------------------10--|
F7 D7-9
e|------- ------- ------- -------|------- ------- ------- -------|
B|----------------------------6--|----------------6---6---6---4--|
G|----------------------------5--|----------------5---5---5---5--|
D|----------------------------7--|----------------7---7---7---4--|
A|----------------------------6--|----------------6---6---6---5--|
E|-------------------------------|-------------------------------|




F7
e|------- ------- ------- ----1--|------- 1------ 1---1-- ----1--|
B|--------3---3---3---3-------4--|--------4-------4---4-------4--|
G|--------5---5---5---5-------2--|--------2-------2---2-------2--|
D|--------4---4---4---4-------1--|--------1-------1---1-------1--|
A|--------5---5---5---5-------3--|--------3-------3---3-------3--|
E|----------------------------1--|--------1-------1---1-------1--|
Looking through a glass onion.
e|------- ------- ----10- ---13--|------- ------- ---13-- ---10--|
B|--------------------10-----13--|-------------------13------12--|
G|--------------------11-----14--|-------------------14------12--|
D|--------------------10---------|-------------------------------|
A|--------------------12---------|-------------------------------|
E|--------------------10---------|-------------------------------|
F7
e|------- ------- ------- -------|------- ------- ------- -------|
B|-------------------------------|-------------------------------|
G|-------------------------------|8---8---8---8---8---8---8---8--|
D|-------------------------------|7---7---7---7---7---7---7---7--|
A|-------------------------------|8---8---8---8---8---8---8---8--|
E|-------------------------------|-------------------------------|




G
e|3------ ------- ------- -------|
B|3------------------------------|
G|4------------------------------|
D|5------------------------------|
A|5------------------------------|
E|3------------------------------|
G7
e|------- ------- ------- -------|
B|-------------------------------|
G10------------------------------|
D|9------------------------------|
A10------------------------------|
E|-------------------------------|





Am F7
e|0------ 0------ 0---0-- 0---0--|1------ 1---1-- ----1-- ----1--|
B|1-------1-------1---1---1---1--|4-------4---4-------4-------4--|
G|2-------2-------2---2---2---2--|2-------2---2-------2-------2--|
D|2-------2-------2---2---2---2--|1-------1---1-------1-------1--|
A|0-------0-------0---0---0---0--|3-------3---3-------3-------3--|
E|-------------------------------|1-------1---1-------1-------1--|
I told you about the walrus and me-man
e|------- 8------ ----8-- -------|------- ------- 8---8-- 8------|
B|-------10----------10----------|---------------10--10--10------|
G|--------9-----------9----------|---------------10--10--10------|
D|-------------------------------|-------------------------------|
A|-------------------------------|-------------------------------|
E|-------------------------------|-------------------------------|




Am F7
e|0------ 0------ 0---0-- 0---0--|1------ 1------ 1---1-- 1---1--|
B|1-------1-------1---1---1---1--|4-------4-------4---4---4---4--|
G|2-------2-------2---2---2---2--|2-------2-------2---2---2---2--|
D|2-------2-------2---2---2---2--|1-------1-------1---1---1---1--|
A|0-------0-------0---0---0---0--|3-------3-------3---3---3---3--|
E|-------------------------------|1-------1-------1---1---1---1--|
You know that we're as close as can be-man
e|8------ 8------ ----8-- -------|------- 1313-13 ---13--13------|
B10------10----------10----------|--------1313-13----13--13------|
G|9-------9-----------9----------|--------1010-10----10--10------|
D|-------------------------------|-------------------------------|
A|-------------------------------|-------------------------------|
E|-------------------------------|-------------------------------|




Am Gm
e|0------ 0------ 0---0-- 0---0--|3------ 3---3-- ----3-- 3------|
B|1-------1-------1---1---1---1--|3-------3---3-------3---3------|
G|2-------2-------2---2---2---2--|3-------3---3-------3---3------|
D|2-------2-------2---2---2---2--|5-------5---5-------5---5------|
A|0-------0-------0---0---0---0--|5-------5---5-------5---5------|
E|-------------------------------|3-------3---3-------3---3------|
Well here's another clue for you all
e|8------ 8------ ----8-- -------|6------ 6---6-- ----6-- ----8--|
B10------10----------10----------|8-------8---8-------8------10--|
G|9-------9-----------9----------|7-------7---7-------7-------9--|
D|-------------------------------|----------------------------8--|
A|-------------------------------|-------------------------------|
E|-------------------------------|-------------------------------|

e|------- ------- ------- -------|3------ ------- /--------------|
B|-------------------------------|3---------------/--------------|
G|-------------------------------|3---------------/--------------|
D|-------------------------------|5---------------/--------------|
A|-------------------------------|5---------------/--------------|
E|-------------------------------|3---------------/--------------|




C7 Gm
e|3------ 3------ 3---3-- 3---3--|3------ 3------ 3---3-- 3------|
B|5-------5-------5---5---5---5--|3-------3-------3---3---3------|
G|3-------3-------3---3---3---3--|3-------3-------3---3---3------|
D|5-------5-------5---5---5---5--|5-------5-------5---5---5------|
A|3-------3-------3---3---3---3--|5-------5-------5---5---5------|
E|-------------------------------|3-------3-------3---3---3------|
The walrus was Paul.
e|------- 8------ ------- -------|3------ 3------ ----3-- -------|
B|-------10----------------------|3-------3-----------3-------8--|
G|--------9----------------------|3-------3-----------3-------9--|
D|--------8--------------10------|5-------5-----------5-------8--|
A|-----------------------10------|-------------------------------|
E|------------------------8------|----------------------------8--|

e|8------ ------- ------- 8--\---|------- ------- ------- -------|
B10----------------------10--\---|3------------------------------|
G|9-----------------------9--\---|3------------------------------|
D|8-----------------------8--\---|5------------------------------|
A10----------------------10--\---|5------------------------------|
E|8-----------------------8--\---|3------------------------------|




C7 F7 D7
e|3------ 3------ 3---3-- 3---3--|1------ 1------ 1---1-- 1------|
B|5-------5-------5---5---5---5--|4-------4-------4---4---4---3--|
G|3-------3-------3---3---3---3--|2-------2-------2---2---2---5--|
D|5-------5-------5---5---5---5--|1-------1-------1---1---1---4--|
A|3-------3-------3---3---3---3--|3-------3-------3---3---3---5--|
E|-------------------------------|1-------1-------1---1---1------|
Standing on the cast iron shore-
e|------- 8------ ------- ----/--|13----- ------- 13----- -------|
B|--------8-------------------/--|13--------------13---------10--|
G|--------9---9---------------/--|14--------------14---------11--|
D|-----------10------------------|---------------------------10--|
A|-----------10------------------|-------------------------------|
E|-------------------------------|-------------------------------|

e|------- ------- ------- -------|------- ------- ------- -------|
B|----------------------------6--|------------6---6---6---6---4--|
G|5---------------------------5--|------------5---5---5---5---5--|
D|5---------------------------7--|------------7---7---7---7---4--|
A|3---------------------------6--|------------6---6---6---6---5--|
E|-------------------------------|-------------------------------|




F7 D7
e|------- ------- ------- ----1--|------- 1------ 1---1-- -------|
B|--------3-------3---3-------4--|--------4-------4---4-------3--|
G|--------5-------5---5-------2--|--------2-------2---2-------5--|
D|--------4-------4---4-------1--|--------1-------1---1-------4--|
A|--------5-------5---5-------3--|--------3-------3---3-------5--|
E|----------------------------1--|--------1-------1---1----------|
yeah Lady Madonna trying to make ends meet
e|------- ------- ---14-- ---13--|------- ------- ---13-- ---11--|
B|-------------------13------13--|-------------------13------10--|
G|-------------------14------14--|-------------------14------11--|
D|-------------------13----------|---------------------------10--|
A|-------------------------------|-------------------------------|
E|-------------------------------|-------------------------------|

e|------- ------- ------- -------|------- ------- ------- -------|
B|----------------------------6--|----------------6---6-------4--|
G|----------------------------5--|----------------5---5-------5--|
D|----------------------------7--|----------------7---7-------4--|
A|----------------------------6--|----------------6---6-------5--|
E|-------------------------------|-------------------------------|




F7
e|------- ------- ------- ----1--|------- 1------ 1---1-- ----1--|
B|--------3---3---3---3-------4--|--------4-------4---4-------4--|
G|--------5---5---5---5-------2--|--------2-------2---2-------2--|
D|--------4---4---4---4-------1--|--------1-------1---1-------1--|
A|--------5---5---5---5-------3--|--------3-------3---3-------3--|
E|----------------------------1--|--------1-------1---1-------1--|
-yeah Looking through a glass onion.
e|------- ------- ------- ---13--|------- ------- ---13-- -------|
B|-------------------10------13--|-------------------13----------|
G|-------------------11------14--|-------------------14----------|
D|-------------------10----------|-------------------------------|
A|-------------------------------|-------------------------------|
E|-------------------------------|-------------------------------|

e|------- ------- ------- -------|------- ------- ------- -------|
B|----------------------------6--|-------------------------------|
G|----------------------------5--|-------------------------------|
D|----------------------------7--|-------------------------------|
A|----------------------------6--|-------------------------------|
E|-------------------------------|-------------------------------|




x x xx
G
e|3------ ------- ------- -------|
B|3------------------------------|
G|4------------------------------|
D|5------------------------------|
A|5------------------------------|
E|3------------------------------|

e10------ ------- ------- -------|
B12------------------------------|
G12------------------------------|
D|-------------------------------|
A|-------------------------------|
E|-------------------------------|





Am
e|0------ 0---0-- 0---0-- 0---0--|0------ 0------ 0---0-- 0---0--|
B|1-------1---1---1---1---1---1--|1-------1-------1---1---1---1--|
G|2-------2---2---2---2---2---2--|2-------2-------2---2---2---2--|
D|2-------2---2---2---2---2---2--|2-------2-------2---2---2---2--|
A|0-------0---0---0---0---0---0--|0-------0-------0---0---0---0--|
E|-------------------------------|-------------------------------|
Oh, yeah
e|------- 5------ ----5-- -------|------- 5------ ----5-- -------|
B|--------5-----------5----------|--------5-----------5----------|
G|--------5-----------5----------|--------5-----------5----------|
D|--------7-----------7----------|--------7-----------7----------|
A|-------------------------------|-------------------------------|
E|-------------------------------|-------------------------------|

e|------- ------- ------- -------|------- ------- ------- -------|
B|5------------------------------|-------------------------------|
G|5------------------------------|-------------------------------|
D|7------------------------------|-------------------------------|
A|-------------------------------|-------------------------------|
E|-------------------------------|-------------------------------|




Fmaj7
e|0------ 0---0-- 0---0-- 0---0--|0------ 0------ 0---0-- 0---0--|
B|1-------1---1---1---1---1---1--|1-------1-------1---1---1---1--|
G|2-------2---2---2---2---2---2--|2-------2-------2---2---2---2--|
D|3-------3---3---3---3---3---3--|3-------3-------3---3---3---3--|
A|0-------0---0---0---0---0---0--|0-------0-------0---0---0---0--|
E|-------------------------------|-------------------------------|
Oh,
e|------- 8------ ----8-- -------|------- 5------ ----5-- -------|
B|-------10----------10----------|--------6-----------6----------|
G|-------10----------10----------|--------5-----------5----------|
D|-------------------------------|-------------------------------|
A|-------------------------------|-------------------------------|
E|-------------------------------|-------------------------------|

e|------- ------- ------- -------|------- ------- ------- -------|
B|6------------------------------|-------------------------------|
G|5------------------------------|-------------------------------|
D|7------------------------------|-------------------------------|
A|-------------------------------|-------------------------------|
E|-------------------------------|-------------------------------|




Am6
e|0------ 0---0-- 0---0-- 0---0--|0------ 0------ 0---0-- 0---0--|
B|1-------1---1---1---1---1---1--|1-------1-------1---1---1---1--|
G|2-------2---2---2---2---2---2--|2-------2-------2---2---2---2--|
D|4-------4---4---4---4---4---4--|4-------4-------4---4---4---4--|
A|0-------0---0---0---0---0---0--|0-------0-------0---0---0---0--|
E|-------------------------------|-------------------------------|
yeah Oh,
e|------- 5------ ----5-- -------|------- 5------ ----5-- -------|
B|--------5-----------5----------|--------5-----------5----------|
G|--------5-----------5----------|--------5-----------5----------|
D|-------------------------------|-------------------------------|
A|-------------------------------|-------------------------------|
E|-------------------------------|-------------------------------|

e|------- ------- ------- -------|------- ------- ------- -------|
B|7------------------------------|-------------------------------|
G|5------------------------------|-------------------------------|
D|7------------------------------|-------------------------------|
A|-------------------------------|-------------------------------|
E|-------------------------------|-------------------------------|




Am7
e|0------ 0---0-- 0---0-- 0---0--|0------ 0------ 0---0-- 0---0--|
B|1-------1---1---1---1---1---1--|1-------1-------1---1---1---1--|
G|0-------0---0---0---0---0---0--|0-------0-------0---0---0---0--|
D|2-------2---2---2---2---2---2--|2-------2-------2---2---2---2--|
A|0-------0---0---0---0---0---0--|0-------0-------0---0---0---0--|
E|-------------------------------|-------------------------------|
yeah
e|------- 5------ ------- 5------|------- 5------ ------- 5------|
B|--------5---------------5------|--------5---------------5------|
G|--------5---------------5------|--------5---------------5------|
D|-------------------------------|-------------------------------|
A|-------------------------------|-------------------------------|
E|-------------------------------|-------------------------------|

e|------- ------- ------- -------|------- ------- ------- -------|
B|8---8---8---8---8---8---8---8--|8---8---8---8---8---8---8---8--|
G|5---5---5---5---5---5---5---5--|5---5---5---5---5---5---5---5--|
D|7---7---7---7---7---7---7---7--|7---7---7---7---7---7---7---7--|
A|-------------------------------|-------------------------------|
E|-------------------------------|-------------------------------|



x x x x
F7 G
e|1------ 1------ 1------ 1------|3------ ------- ------- -------|
B|4-------4-------4-------4------|3------------------------------|
G|2-------2-------2-------2------|5------------------------------|
D|1-------1-------1-------1------|6------------------------------|
A|3-------3-------3-------3------|6------------------------------|
E|1-------1-------1-------1------|3------------------------------|
Looking through a glass onion
e|8------ 8------ ----8-- ----8--10------ ------- ------- -------|
B|6-------6-----------6-------6--|8------------------------------|
G|-------------------------------|-------------------------------|
D|-------------------------------|-------------------------------|
A|-------------------------------|-------------------------------|
E|-------------------------------|-------------------------------|

e|5------ 5------ ----5-- ----5-/|7------ ------- ------- -------|
B|7-------7-----------7-------7-/|9------------------------------|
G|5-------5-----------5-------5-/|7------------------------------|
D|-------------------------------|-------------------------------|
A|-------------------------------|-------------------------------|
E|-------------------------------|-------------------------------|




Am F7
e|0------ 0---0-- 0---0-- 0---0--|1---1-- 1---1-- ----1-- 1---1--|
B|1-------1---1---1---1---1---1--|4---4---4---4-------4---4---4--|
G|2-------2---2---2---2---2---2--|2---2---2---2-------2---2---2--|
D|2-------2---2---2---2---2---2--|1---1---1---1-------1---1---1--|
A|0-------0---0---0---0---0---0--|3---3---3---3-------3---3---3--|
E|-------------------------------|1---1---1---1-------1---1---1--|
I told you about the fool on the hill
e|------- 5------ ------- 5------|------- 8------ 8------ -------|
B|--------5---------------5------|--------6-----------6----------|
G|--------5---------------5------|-------------------------------|
D|-------------------------------|-------------------------------|
A|-------------------------------|-------------------------------|
E|-------------------------------|-------------------------------|




Am F7
e|0------ 0---0-- 0---0-- 0------|1---1-- 1---1-- ----1-- 1---1--|
B|1-------1---1---1---1---1------|4---4---4---4-------4---4---4--|
G|2-------2---2---2---2---2------|2---2---2---2-------2---2---2--|
D|2-------2---2---2---2---2------|1---1---1---1-------1---1---1--|
A|0-------0---0---0---0---0------|3---3---3---3-------3---3---3--|
E|-------------------------------|1---1---1---1-------1---1---1--|
I tell you man he living there still
e|------- 5------ ------- 5------|------- 8------ 8------ -------|
B|--------5---------------5------|--------6-----------6----------|
G|--------5---------------5------|-------------------------------|
D|-------------------------------|-------------------------------|
A|-------------------------------|-------------------------------|
E|-------------------------------|-------------------------------|

e|------- ------- ------- -------|------- ------- ------- -------|
B|-------------------------------|----------------6---8--10--10--|
G|-------------------------------|-------------------------------|
D|-------------------------------|-------------------------------|
A|-------------------------------|-------------------------------|
E|-------------------------------|-------------------------------|




Am Gm
e|0------ 0---0-- 0---0-- 0---0--|3------ 3---3-- ----3-- 3------|
B|1-------1---1---1---1---1---1--|3-------3---3-------3---3------|
G|2-------2---2---2---2---2---2--|3-------3---3-------3---3------|
D|2-------2---2---2---2---2---2--|5-------5---5-------5---5------|
A|0-------0---0---0---0---0---0--|5-------5---5-------5---5------|
E|-------------------------------|3-------3---3-------3---3------|
Well here's another place you can be
e|------- 5------ ------- 5------|-------10------ ------- 10-----|
B|--------5---------------5------|-------11---------------11-----|
G|--------5---------------5------|-------12---------------12-----|
D|-------------------------------|-------------------------------|
A|-------------------------------|-------------------------------|
E|-------------------------------|-------------------------------|

e|------- ------- ------- -------|3------ ------- /--------------|
B|-------------------------------|3---------------/--------------|
G|-------------------------------|3---------------/--------------|
D|-------------------------------|5---------------/--------------|
A|-------------------------------|5---------------/--------------|
E|-------------------------------|3---------------/--------------|




C7 Gm
e|3------ 3------ 3---3-- 3---3--|3------ 3------ 3---3-- 3------|
B|5-------5-------5---5---5---5--|3-------3-------3---3---3------|
G|3-------3-------3---3---3---3--|3-------3-------3---3---3------|
D|5-------5-------5---5---5---5--|5-------5-------5---5---5------|
A|3-------3-------3---3---3---3--|5-------5-------5---5---5------|
E|-------------------------------|3-------3-------3---3---3------|
Listen to me
e|------- 8------ ------- 8------|------- 15----- ------- 15-----|
B|-------10--------------10------|--------15--------------15-----|
G|--------9---------------9------|--------15--------------15-----|
D|-------------------------------|-------------------------------|
A|-------------------------------|-------------------------------|
E|-------------------------------|-------------------------------|

e|8------ ------- ------- 8--\---|------- ------- ------- -------|
B10----------------------10--\---|3------------------------------|
G|9-----------------------9--\---|3------------------------------|
D|8-----------------------8--\---|5------------------------------|
A10----------------------10--\---|5------------------------------|
E|8-----------------------8--\---|3------------------------------|




C7 F7 D7
e|3------ 3------ 3---3-- 3---3--|1------ 1------ 1---1-- 1------|
B|5-------5-------5---5---5---5--|4-------4-------4---4---4---3--|
G|3-------3-------3---3---3---3--|2-------2-------2---2---2---5--|
D|5-------5-------5---5---5---5--|1-------1-------1---1---1---4--|
A|3-------3-------3---3---3---3--|3-------3-------3---3---3---5--|
E|-------------------------------|1-------1-------1---1---1------|
Fixing a hole in the ocean
e|8------ 8------ ----8-- ----8--|------- ------- 8---8-- ---10--|
B|8-------8-----------8------10--|---------------10--10------13--|
G|9-------9-----------9-------8--|----------------8---8------11--|
D|---------------------------10--|---------------10--10------10--|
A|----------------------------8--|----------------8---8----------|
E|-------------------------------|---------------------------10--|

e|------- ------- ------- -------|------- ------- ------- -------|
B|----------------------------6--|------------6---6---6---6---4--|
G|5---------------------------5--|------------5---5---5---5---5--|
D|5---------------------------7--|------------7---7---7---7---4--|
A|3---------------------------6--|------------6---6---6---6---5--|
E|-------------------------------|-------------------------------|




F7 D7
e|------- ------- ------- ----1--|------- 1------ 1---1-- -------|
B|--------3-------3---3-------4--|--------4-------4---4-------3--|
G|--------5-------5---5-------2--|--------2-------2---2-------5--|
D|--------4-------4---4-------1--|--------1-------1---1-------4--|
A|--------5-------5---5-------3--|--------3-------3---3-------5--|
E|----------------------------1--|--------1-------1---1----------|
Trying to make a dove-tail joint-
e|------- ------- 10-10-- ---13--|------- ------- ---13-- ---11--|
B|----------------13-13------13--|-------------------13------10--|
G|----------------11-11---11-14--|-------------------14------11--|
D|----------------10-10----------|---------------------------10--|
A|-------------------------------|-------------------------------|
E|----------------10-------------|-------------------------------|

e|------- ------- ------- -------|------- ------- ------- -------|
B|----------------------------6--|----------------6---6-------4--|
G|----------------------------5--|----------------5---5-------5--|
D|----------------------------7--|----------------7---7-------4--|
A|----------------------------6--|----------------6---6-------5--|
E|-------------------------------|-------------------------------|




F7 G
e|------- ------- ------- ----1--|------- 1------ 1---1-- -------|3--|
B|--------3-------3---3-------4--|--------4-------4---4----------|3--|
G|--------5-------5---5-------2--|--------2-------2---2----------|4--|
D|--------4-------4---4-------1--|--------1-------1---1----------|5--|
A|--------5-------5---5-------3--|--------3-------3---3----------|5--|
E|----------------------------1--|--------1-------1---1----------|3--|
yeah Looking through a glass onion.
e|------- ------- ------- ---13--|------- ------- ---13-- ---15--|---|
B|----------------10-10------13--|-------------------13------15--|---|
G|----------------11-11------14--|-------------------14------16--|---|
D|----------------10-10----------|-------------------------------|---|
A|-------------------------------|-------------------------------|---|
E|-------------------------------|-------------------------------|---|

e|------- ------- ------- -------|------- ------- ------- -------|---|
B|----------------------------6--|-------------------------------|3--|
G|----------------------------5--|-------------------------------|4--|
D|----------------------------7--|-------------------------------|5--|
A|----------------------------6--|-------------------------------|---|
E|-------------------------------|-------------------------------|---|





e|------- ------- ------- -------|------- ------- ------- -------|
B|-------------------------------|-------------------------------|
G|-------------------------------|-------------------------------|
D|-------------------------------|-------------------------------|
A|--------3---------------3------|--------3---------------3------|
E|1---------------1--------------|1---------------1--------------|
Adim Abdim Gdim F#dim
e|5------ ------- ------- -------|5------ 4------ 3------ 2------|
B|4------------------------------|4-------3-------2-------1------|
G|5------------------------------|5-------4-------3-------2------|
D|4------------------------------|4-------3-------2-------1------|
A|-------------------------------|-------------------------------|
E|-------------------------------|-------------------------------|
Ritardando.....................



e|------- ------- ------- -------|------- ------- ------- -------|
B|-------------------------------|-------------------------------|
G|--------2---------------2------|--------2---------------2------|
D|0---------------0--------------|0---------------0--------------|
A|-------------------------------|-------------------------------|
E|-------------------------------|-------------------------------|
Gdim Abdim Adim
e|------- ------- ------- -------|2------ 3------ 4------ 5------|
B|-------------------------------|1-------2-------3-------4------|
G|-------------------------------|2-------3-------4-------5------|
D|-------------------------------|1-------2-------3-------4------|
A|-------------------------------|-------------------------------|
E|-------------------------------|-------------------------------|
...............................................................



e|------- ------- ------- -------|------- ------- ------- -------|
B|-------------------------------|-------------------------------|
G|-------------------------------|-------------------------------|
D|-------------------------------|-------------------------------|
A|--------3---------------3------|--------3---------------3------|
E|1---------------1--------------|1---------------1--------------|
Abdim Gdim F#dim
e|------- ------- ------- -------|5------ 4------ 3------ 2------|
B|-------------------------------|4-------3-------2-------1------|
G|-------------------------------|5-------4-------3-------2------|
D|-------------------------------|4-------3-------2-------1------|
A|-------------------------------|-------------------------------|
E|-------------------------------|-------------------------------|
...............................................................



e|------- ------- ------- -------|------- ------- ------- -------|
B|-------------------------------|-------------------------------|
G|--------2---------------2------|--------2---------------2------|
D|0---------------0--------------|0---------------0--------------|
A|-------------------------------|-------------------------------|
E|-------------------------------|-------------------------------|
Gdim Abdim Adim
e|------- ------- ------- -------|2------ 3------ 4------ 5------|
B|-------------------------------|1-------2-------3-------4------|
G|-------------------------------|2-------3-------4-------5------|
D|-------------------------------|1-------2-------3-------4------|
A|-------------------------------|-------------------------------|
E|-------------------------------|-------------------------------|
...............................................................








B Bend
R Release
/ slide up
\ slide down
H hammer-on
P pull-off
~ vibrato
+ harmonic
x Mute note
. - play note like a dot in standard notation
^ - ties two notes together
(. Pause

pjvill

Submitted by pjvill at Mon 05 Dec, 2005 5:29 am

Author: ?
Composer: ?
Publisher: ?
Language: English

Reactions

CommonCrawl [Bot]

Follow Muzikum