The Beatles

The Beatles
Girl Ver 2 (Guitar tab)

--------------------------------------------------------------------------
The Beatles - Girl from Rubber Soul album.(Released on December the
3rd of 1965.)


--------------------------------------------------------------------------

Tabbed by:PJVillanueva



This song was recorded using a capo in the eighth fret
The corresponding chords to that position are written
over the lyrics.
Below there is an uncappoed version.(Maybe it works
better for those who find a little difficult putting
their fingers on small frets.)



Chords:

Em 022000
B7 x21202
Em7 020030
Am x02210
C6 x32210
G 320033
Bm x24432
D7 xx0212
E 022100
C 332010






Verse 1

Em B7 Em Em7
Is there anybody going to listen to my story

Am C6 G B7
All about a girl who came to stay

Em B7 Em Em7
She's the kind of girl you want so much it makes you sorry

Am C6 Em
Still you don't regret a single day



Chorus

G Bm Am D7 G Bm Am D7
Ah, girl............girl



Verse 2

Em B7 Em Em7
When I think of all the times I've tried so hard to leave her

Am C6 G B7
She will turn to me and start to cry

Em B7 Em Em7
And she promises the earth to me and I believe her

Am C6 Em
After all this time I don't know why



Chorus



Middle

Am E
She's the kind of girl who puts you down

Am E
when friends are there, you feel a fool

Am
When you say she's looking good

E Am C
She acts as if it's understood she's cool



Chorus



Verse 3


Was she told when she was young


That fame would lead to pleasure?


Did she understand it when they said


That a man must break his back


To earn his day of leisure?


Will she still believe it when he's dead?



Chorus





....................................................................................





12/8 time



Verse


e|-8---- -8---- 10---- 10----|-8---- -8---- -8---- -8----|
B|-8------8------8------8----|-8------8--8--11-----11--8-|
G|-8------8-----10-----10----|-8------8--8---8------8--8-|
D|10-----10------9------9----|10-----10-10---8------8--8-|
A|10-----10------------------|10-----10-10--10-----10-10-|
E|-8------8------------------|-8------8--8---8------8--8-|
Cm G7 Cm Cm7



e|-8---8 -8---8 -8---8 -8----|-6---6 -6---8 10--10 -----8-|
B|-9---9--9---9--9---9--9---8|-8---8--8---8--8---8------8-|
G|10--10-10--10-10--10-10---8|-8---8--8---8-10--10------8-|
D|10--10-10--10-10--10-10---8|-8---8--8------9---9-----10-|
A|-8---8--8---8--8---8--8----|-6---6--6----------------10-|
E|-------------------------- |--------------------------8-|
Fm Eb G7 Cm



e|-----8 -8---8 10--10 10---8|-----8 -8---- -8---8 ------|
B|-----8--8---8--8---8--8---8|-----8--8---8 11--11-11--8-|
G|-----8--8---8-10--10-10---8|-----8--8---8--8---8--8--8-|
D|----10-10--10--9---9--9--10|----10-10--10--8---8--8--8-|
A|----10-10--10------------10|----10-10--10-10--10-10-10-|
E|-----8---8--8-------------8|-----8--8---8--8---8--8--8-|
G7 Cm Cm7



e|-8---8 -8---8 -8---8 -8---8|-8---- 8----- 8----- 8----8|
B|-9---9--9---9--9---9--9---8|-8-----8------8------8----8|
G|10--10-10--10-10--10-10---8|-8-----8------8------8----8|
D|10--10-10--10-10--10-10---8|10----10-----10-----10---10|
A|-8---8--8---8--8---8--8----|10----10-----10-----10---10|
E|---------------------------|-8-----8------8------8----8|
Fm Cm





Chorus

e|11---- 11---- 10--10 10--10|-8---8 -8---8 10--10 10----|
B|11-----11-----11--11-11--11|-9---9--9---9--9---9--9---8|
G|12-----12-----12--12-12--12|10--10-10--10-10--10-10---8|
D|13-----13-----12--12-12--12|10--10-10--10--8---8--8---8|
A|13-----13-----10--10-10--10|-8---8--8---8--------------|
E|11-----11------------------|---------------------------|
Eb Gm Fm Bb


e|11--11 11--11 10--10 10--10|-8---8 -8---8 10--10 10---8|
B|11--11-11--11-10--10-10--10|-9---9--9---9--9---9--9---8|
G|12--12-12--12-12--12-12--12|10--10-10--10-10--10-10---8|
D|13--13-13--13-12--12-12--12|10--10-10--10--8---8--8---8|
A|13--13-13--13-10--10-10--10|-8---8--8---8--------------|
E|11--11-11--11--------------|---------------------------|
Eb Gm Fm Bb






Middle

e|-8---- -8---- -8---- -8----|-8---- -8---- -8---- -8----|
B|-9------9------9------9----|-8------8------8------8----|
G|10-----10-----10-----10----|-9------9------9------9----|
D|10-----10-----10-----10----|10-----10-----10-----10----|
A|-8------8------8------8----|10-----10-----10-----10----|
E|---------------------------|-8------8------8------8----|3 times
Fm C
.......


e|-8---- -8---- -8---- -8----|-8---- -8---- -8---- ------|
B|-9------9------9------9----|-9------9------9-----------|
G|10-----10-----10-----10----|-8------8------8-----------|
D|10-----10-----10-----10----|10-----10-----10-----------|
A|-8------8------8------8----|11-----11-----11-----------|
E|---------------------------|---------------------------|
Fm A





Ending


First guitar


e|------ ------ ------ ------|------ ------ ------ ------|
B|---------------------------|8-------------9------8-----|
G|8-------------10-----7-----|-------8-------------------|
D|-------10------------------|---------------------------|
A|---------------------------|---------------------------|
E|---------------------------|---------------------------|


e|------ ------ ------ ------|------ ------ ------ ------|
B|-------9------8------------|---------------------------|
G|10-------------------10----|8------10-----8------7-----|
D|---------------------------|---------------------------|
A|---------------------------|---------------------------|
E|---------------------------|---------------------------|2 times



Second guitar


e|------ ------ ------ ------|------ ------ ------ ------|
B|8--8----------9--9---------|11-11---------13-13--11-11-|
G|-------8--8----------10-10-|-------12-12---------------|
D|---------------------------|---------------------------|
A|---------------------------|---------------------------|
E|---------------------------|---------------------------|


e|------ ------ ------ ------|------ ------ ------ ------|
B|9--9---13-13--11-11--9--9--|8--8---9--9---8--8---------|
G|---------------------------|---------------------10-10-|
D|---------------------------|---------------------------|
A|---------------------------|---------------------------|
E|---------------------------|---------------------------|2 times











| B Bend
| R Release
| / slide up
| \ slide down
| h hammer-on
| p pull-off
| ~ vibrato
| + harmonic
| x Mute note

pjvill

Submitted by pjvill at Mon 05 Dec, 2005 5:28 am

Author: ?
Composer: ?
Publisher: ?
Language: English

Reactions

CommonCrawl [Bot]

Follow Muzikum