The Beatles

The Beatles
For No One Ver 2 (Guitar tab)

------------------------------------------------------------------
THE BEATLES - FOR NO ONE (Lennon/McCartney) From REVOLVER album.
Released on 5th August 1966.

------------------------------------------------------------------

Tabbed by:PJVillanueva




The basic piano track of this song was recorded i C Major.
Then it was slowed down a little to record Paul's vocals
and bass in B. Tune your guitar half a step down to match
the piano sound on the recording. The tones from the piano
chords wouldn't sound the same on guitar if you didn't, but
you could also play the song pretty easily in B.





Your day breaks, your mind aches
You find that all the words of kindness linger on
When she no longer needs you

She wakes up, she makes up
She takes her time and doesn’t feel she has to hurry
She no longer needs you

And in her eyes you see nothing
No sign of love behind the tears
Cried for no one
A love that should have lasted years!

You want her, you need her
And yet you don’t believe her when she says her love is dead
You think she needs you

And in her eyes you see nothing
No sign of love behind the tears
Cried for no one
A love that should have lasted years!

You stay home, she goes out
She says that long ago she knew someone but now he’s gone
She doesn’t need him

Your day breaks, your mind aches
There will be time when all the things she said will fil your head
You won’t forget her

And in her eyes you see nothing
No sign of love behind the tears
Cried for no one
A love that should have lasted years!






C5 Cmaj7 Am Am7
e|----3-- 3---3-- ----3-- 3---3--|----0-- 0---0-- ----0-- 0---0--|
B|----1---1---1-------1---1---1--|----1---1---1-------1---1---1--|
G|----0---0---0-------0---0---0--|----2---2---2-------2---2---2--|
D|-------------------------------|-------------------------------|
A|3---------------2--------------|0------------------------------|
E|-------------------------------|----------------3--------------|
Your day breaks, your mind aches, you find that all the words of kin..




F Bb C
e|------- ------- ------- -------|----0-- 0---0-- ----0-- 0---0--|
B|----1---1---1-------3---3---3--|----1---1---1-------1---1---1--|
G|----2---2---2-------3---3---3--|----0---0---0-------0---0---0--|
D|----3---3---3-------3---3---3--|-------------------------------|
A|----------------1--------------|3-----------3------------------|
E|1------------------------------|----------------3--------------|
..dness linger on when she no longer needs you.




C5 Cmaj7 Am Am7
e|----3-- 3---3-- ----3-- 3---3--|----0-- 0---0-- ----0-- 0---0--|
B|----1---1---1-------1---1---1--|----1---1---1-------1---1---1--|
G|----0---0---0-------0---0---0--|----2---2---2-------2---2---2--|
D|-------------------------------|-------------------------------|
A|3---------------2--------------|0------------------------------|
E|-------------------------------|----------------3--------------|
She wakes up, she makes up She takes her time and doesn’t feel




F Bb C
e|------- ------- ------- -------|----0-- 0---0-- ----0-- 0---0--|
B|----1---1---1-------3---3---3--|----1---1---1-------1---1---1--|
G|----2---2---2-------3---3---3--|----0---0---0-------0---0---0--|
D|----3---3---3-------3---3---3--|-------------------------------|
A|----------------1--------------|3---------------3--------------|
E|1------------------------------|------------3------------------|
she has to hurry She no longer needs you And in her eyes



Dm
Dm A7 D5 A7sus4 C Dm
e|----1-- 1---1-- ----3-- 3---3--|----5-- 5---3-- 1---0-- 1------|
B|----3---3---3-------2---2---2--|----3---3---3---3---1---3---2-3|
G|--2---2---2---2---2---2---2---2|----2---2---2---2---0---2------|
D|0------------------------------|0-----------2---3--------------|
A|----------------0--------------|-------------------------------|
E|-------------------------------|-------------------------------|
you see nothing No sign of love behind the
tears


Dm
A7 D5 A7sus4 C Dm
e|----1-- 1---1-- ----3-- 3---3--|----5-- 5---3-- 1---0-- 1------|
B|----3---3---3-------2---2---2--|----3---3---3---3---1---3---2--|
G|--2---2---2---2---2---2---2---2|----2---2---2---2---0---2------|
D|0------------------------------|0-----------2---3--------------|
A|----------------0--------------|-------------------------------|
E|-------------------------------|-------------------------------|
cried for no one A love that
should
have lasted
years

C G
e|----1-- 1---1-- ------- -------|
B|3---3---3---3---1-------0------|
G|2---2---2---2---0-------0------|
D|0---------------2-------0------|
A|----------------3--------------|
E|------------------------3------|





C5 Cmaj7 Am Am7
e|----3-- 3---3-- ----3-- 3---3--|----0-- 0---0-- ----0-- 0---0--|
B|----1---1---1-------1---1---1--|----1---1---1-------1---1---1--|
G|----0---0---0-------0---0---0--|----2---2---2-------2---2---2--|
D|-------------------------------|-------------------------------|
A|3-----------3---2--------------|0------------------------------|
E|-------------------------------|----------------3--------------|
You want her, you need her And yet you don’t believe her




F Bb C
e|------- ------- ------- -------|----0-- 0---0-- ----0-- 0---0--|
B|----1---1---1-------3---3---3--|----1---1---1-------1---1---1--|
G|----2---2---2-------3---3---3--|----0---0---0-------0---0---0--|
D|----3---3---3-------3---3---3--|-------------------------------|
A|----------------1--------------|3---------------3-----------3--|
E|1------------------------------|------------3-----------------3|
when she says
her love is dead You
think she
needs you
(Alan Civil French horn solo)
e|------- ------- ------- -------|------- ------- ------- -------|
B|-------------------------------|-------------------------------|
G|-------------------------------|----------------12-------------|
D|-------------------------------|-------------------------------|
A|-------------------------------|-------------------------------|
E|-------------------------------|-------------------------------|





C5 Cmaj7 Am Am7
e|----3-- 3---3-- ----3-- 3---3--|----0-- 0---0-- ----0-- 0---0--|
B|----1---1---1-------1---1---1--|----1---1---1-------1---1---1--|
G|----0---0---0-------0---0---0--|----2---2---2-------2---2---2--|
D|-------------------------------|-------------------------------|
A|3---------------2-----------2-2|0-----------0------------------|
E|-------------------------------|----------------3--------------|

e|------- ------1215--17- 15-----|------1215--13121312--- -------|
B|----13------13--------------13-|----13--------------13---------|
G|----------12-------------------|--12--------------------1210-9-|
D|-------------------------------|-------------------------------|
A|-------------------------------|-------------------------------|
E|-------------------------------|-------------------------------|





F Bb C
e|------- ------- ------- -------|----0-- 0---0-- ----0-- 0---0--|
B|----1---1---1-------3---3---3--|----1---1---1-------1---1---1--|
G|----2---2---2-------3---3---3--|----0---0---0-------0---0---0--|
D|----3---3---3-------3---3---3--|-------------------------------|
A|----------------1-----------1--|3-----------3---3--------------|
E|1------------------------------|--------------3----------------|
And in her eyes
e|------- 8------ ------- -------|------- ------- ------- 8------|
B|----10--------------111011--108|10--8-6-8-6-5-8-----5-8--------|
G|10-----------------------------|----------------5-7------------|
D|-------------------------------|-------------------------------|
A|-------------------------------|-------------------------------|
E|-------------------------------|-------------------------------|




Dm
Dm A7 D5 A7sus4 C Dm
e|----1-- 1---1-- ----3-- 3---3--|----5-- 5---3-- 1---0-- 1------|
B|----3---3---3-------2---2---2--|----3---3---3---3---1---3---2-3|
G|--2---2---2---2---2---2---2---2|----2---2---2---2---0---2------|
D|0------------------------------|0---------0-2---3--------------|
A|----------------0--------------|-------------------------------|
E|-------------------------------|-------------------------------|
you see nothing No sign of love behind the
tears



Dm
A7 D5 A7sus4 C Dm
e|----1-- 1---1-- ----3-- 3---3--|----5-- 5---3-- 1---0-- 1------|
B|----3---3---3-------2---2---2--|----3---3---3---3---1---3---2-3|
G|--2---2---2---2---2---2---2---2|----2---2---2---2---0---2------|
D|0------------------------------|0---------0-2---3--------------|
A|----------------0--------------|-------------------------------|
E|-------------------------------|-------------------------------|
cried for no one A love that
should
have lasted
years

C G
e|----1-- 1---1-- ------- -------|
B|----3---3---3---1-------0------|
G|----2---2---2---0-------0------|
D|0---------------2-------0------|
A|----------------3--------------|
E|------------------------3------|





C5 Cmaj7 Am Am7
e|----3-- 3---3-- ----3-- 3---3--|----0-- 0---0-- ----0-- 0---0--|
B|----1---1---1-------1---1---1--|----1---1---1-------1---1---1--|
G|----0---0---0-------0---0---0--|----2---2---2-------2---2---2--|
D|-------------------------------|-------------------------------|
A|3---------------2--------------|0------------------------------|
E|-------------------------------|----------------3--------------|
You stay home, she goes out She says that long ago she knew




F Bb C
e|------- ------- ------- -------|----0-- 0---0-- ----0-- 0---0--|
B|----1---1---1-------3---3---3--|----1---1---1-------1---1---1--|
G|----2---2---2-------3---3---3--|----0---0---0-------0---0---0--|
D|----3---3---3-------3---3---3--|-------------------------------|
A|----------------1--------------|3---------------3--------------|
E|1------------------------------|------------3------------------|
someone but now he’s
gone She doesn’t
need him
e|------- ------- ------- -------|------- ------- ------- -------|
B|-------------------------------|-------------------------------|
G|-------------------------------|-------------------12----------|
D|-------------------------------|-------------------------------|
A|-------------------------------|-------------------------------|
E|-------------------------------|-------------------------------|





C5 Cmaj7 Am Am7
e|----3-- 3---3-- ----3-- 3---3--|----0-- 0---0-- ----0-- 0---0--|
B|----1---1---1-------1---1---1--|----1---1---1-------1---1---1--|
G|----0---0---0-------0---0---0--|----2---2---2-------2---2---2--|
D|-------------------------------|-------------------------------|
A|3-----------3---2-----------2--|0-----------0------------------|
E|-------------------------------|----------------3-----------3--|
Your day breaks, your mind aches, there
will be
times when all the things
e|------- ------1215--17- 15-----|------1215--13121312--- -------|
B|----13------13--------------13-|----13--------------13---------|
G|----------12-------------------|--12--------------------1210-9-|
D|-------------------------------|-------------------------------|
A|-------------------------------|-------------------------------|
E|-------------------------------|-------------------------------|





F Bb C5
e|------- ------- ------- -------|----0-- 0---0-- ----0-- 0---0--|
B|----1---1---1-------3---3---3--|----1---1---1-------1---1---1--|
G|----2---2---2-------3---3---3--|----0---0---0-------0---0---0--|
D|----3---3---3-------3---3---3--|-------------------------------|
A|----------------1-----------1-1|3-----------3---3-----------3--|
E|1-----------1-1----------------|--------------3----------------|
she said will
fill your head
you won't forget her And in her eyes
e|------- ------- ------- -------|------- ------- ------- -------|
B|-------------------------------|-------------------------------|
G|10-----------------------------|-------------------------------|
D|-------------------------------|-------------------------------|
A|-------------------------------|-------------------------------|
E|-------------------------------|-------------------------------|




Dm
Dm A7 D7 A7sus4 C Dm
e|----1-- 1---1-- ----3-- 3---3--|----5-- 5---3-- 1---0-- 1------|
B|----3---3---3-------2---2---2--|----3---3---3---3---1---3---2-3|
G|--2---2---2---2---2---2---2---2|----2---2---2---2---0---2------|
D|0------------------------------|0---------0-2---3--------------|
A|5---------------0--------------|-------------------------------|
E|-------------------------------|-------------------------------|
you see nothing No sign of love behind the tears



Dm
Dm A7 D7 A7sus4 C Dm
e|----1-- 1---1-- ----3-- 3---3--|----5-- 5---3-- 1---0-- 1------|
B|----3---3---3-------2---2---2--|----3---3---3---3---1---3---2-3|
G|--2---2---2---2---2---2---2---2|----2---2---2---2---0---2------|
D|0------------------------------|0-------0---2---3--------------|
A|----------------0--------------|------0------------------------|
E|-------------------------------|-------------------------------|
cried for no one A love that should have lasted years



Slow (.
C G
e|----1-- 1---1-- ------- -------|
B|----3---3---3---1-------0------|
G|----2---2---2---0-------0------|
D|0---------------2-------0------|
A|----------------3--------------|
E|------------------------3------|

e|3------ ------- ------- -------|
B|-------------------------------|
G|-------------------------------|
D|-------------------------------|
A|-------------------------------|
E|-------------------------------|









B Bend
R Release
/ Slide up
\ Slide down
H Hammer-on
P Pull-off
~ Vibrato
+ Harmonic
x Mute note
. Play note like a dot in standard notation
^ Ties two notes together
(. Pause

pjvill

Submitted by pjvill at Mon 05 Dec, 2005 5:24 am

Author: ?
Composer: ?
Publisher: ?
Language: English

Reactions

CommonCrawl [Bot]

Follow Muzikum