The Beatles

The Beatles
Flying Ver 2 (Guitar tab)

-------------------------------------------------------------------

THE BEATLES - FLYING (Harrison/Lennon/McCartney/Starkey) Included
on the 2-EP:MAGICAL MISTERY TOUR. Released first in
the USA on 27th November 1967.(8th December in the
UK)


-------------------------------------------------------------------

Tabbed by:PJVillanueva







Csus4 C Csus4 C
e|------- ------- ------- -------|------- ------- ------- -------|
B|-------------------------------|-------------------------------|
G|-------------------------------|-------------------------------|
D|3-------3-------3-------2------|--------3-------3-------2------|
A|3-------3-------3-------3------|--------3-------3-------3------|
E|-------------------------------|-------------------------------|



Csus4 C Csus4 C
e|------- ------- ------- -------|------- ------- ------- -------|
B|-------------------------------|-------------------------------|
G|-------------------------------|-------------------------------|
D|3-------3-------3-------2------|--------3-------3-------2------|
A|3-------3-------3-------3------|--------3-------3-------3------|
E|-------------------------------|-------------------------------|



F7
e|------- ------- ------- -------|------- ------- ------- -------|
B|-------------------------------|-------------------------------|
G|--------2-------2--------------|--------2-------2-------2------|
D|--------1-------1--------------|--------1-------1-------1------|
A|----3-------------------3------|----3-------3-------3----------|
E|1------------------------------|1------------------------------|

e|------- ------- ------- -------|------- ------- ------- -------|
B|-------------------------------|------------------4/6-------4--|
G|-------------------------------|----5-------5-----5/7-------5--|
D|-------------------------------|3-------3----------------------|
A|-------------------------------|-------------------------------|
E|-------------------------------|-------------------------------|



Csus4 C Csus4 C
e|------- ------- ------- -------|------- ------- ------- -------|
B|-------------------------------|-------------------------------|
G|-------------------------------|-------------------------------|
D|--------3-------3-------3------|2-------3-------3-------2------|
A|--------3-------3-------3------|3-------3-------3-------3------|
E|-------------------------------|-------------------------------|

e|------- ------- ------- -------|------- ------- ------- -------|
B|3-\-1--------------------------|-------------------------------|
G|3-\-2-------3-------5-------3--|-------------------------------|
D|------------5------------------|-------------------------------|
A|-------------------------------|-------------------------------|
E|-------------------------------|-------------------------------|



G7 F
e|------- ------- ------- -------|------- ------- ------- -------|
B|-------------------------------|-------------------------------|
G|-------------------------------|-------------------------------|
D|--------3-------3--------------|--------2-------2-------2------|
A|--------5-------5--------------|--------2-------2-------2------|
E|3------------------------------|1------------------------------|

e|12-\-12 8---7-\ 5---3-- 1-P-0--|1-/-3-- 3---1-/ 3---3-- 1-P-0--|
B|-------------------------------|-------------------------------|
G|12-\-12-9---7-\-5---4---2-P-0--|2-/-4---4---2-/-4---4---2-P-0--|
D|-------------------------------|-------------------------------|
A|-------------------------------|-------------------------------|
E|-------------------------------|-------------------------------|



C G
e|------- ------- ------- -------|------- ------- ------- -------|
B|-------------------------------|-------------------------------|
G|-------------------------------|-------------------------------|
D|--------2-------2-------2------|-------------------------------|
A|--------3-------3-------3------|-------------------------------|
E|-------------------------------|-------------------------------|

e|----0-- ------- ------- -------|------- ------- ------- -------|
B|1-----------1-------1----------|-------------------------------|
G|----0-----------0--------------|-------------------------------|
D|2-----------2-------2----------|-------------------------------|
A|----------------3---------3\2P0|-------------------------------|
E|-------------------------------|3------------------------------|




C Csus4 C Csus4 C
e|------- ------- ------- -------|------- ------- ------- -------|
B|5-----------5---6-------5------|5-------5-------6-------5------|
G|5-----------5---5-------5------|5-------5-------5-------5------|
D|-------------------------------|-------------------------------|
A|-------------------------------|-------------------------------|
E|-------------------------------|-------------------------------|

e|------- ------- ------- -------|3------ ------- ------- -------|
B|-------------------------------|5------------------------------|
G|-------------------------------|5------------------------------|
D|-------------------------------|-------------------------------|
A|-------------------------------|-------------------------------|
E|-------------------------------|-------------------------------|

e|------- ------- ------- 0------|------- ------- ------- -------|
B|--------0---1-------3----------|-------------------------------|
G|0------------------------------|-------------------------------|
D|-------------------------------|-------------------------------|
A|-------------------------------|-------------------------------|
E|-------------------------------|-------------------------------|




Csus4 C
e|------- ------- ------- -------|------- ------- ------- -------|
B|5-------5-------6-------5------|--------5-------5-------5------|
G|5-------5-------5-------5------|--------5-------5-------5------|
D|-------------------------------|-------------------------------|
A|-------------------------------|-------------------------------|
E|-------------------------------|-------------------------------|

e|3------ ------- ------- -------|6------ ------- ------- -------|
B|5------------------------------|5------------------------------|
G|5------------------------------|5------------------------------|
D|-------------------------------|-------------------------------|
A|-------------------------------|-------------------------------|
E|-------------------------------|-------------------------------|

e|------- ------- ------- 0H1P0--|------- ------- ------- -------|
B|--------0---1-------3----------|-------------------------------|
G|0------------------------------|-------------------------------|
D|-------------------------------|-------------------------------|
A|-------------------------------|-------------------------------|
E|-------------------------------|-------------------------------|




F5
e|------- ------- ------- -------|------- ------- ------- -------|
B|6-------6-------8-------6------|6-------6-------5-------6------|
G|5-------5-------5-------5------|5-------5-------5-------5------|
D|-------------------------------|-------------------------------|
A|-------------------------------|-------------------------------|
E|-------------------------------|-------------------------------|

e|5------ ------- ------- -------|5------ ------- ------- -------|
B|6------------------------------|6------------------------------|
G|5------------------------------|5------------------------------|
D|-------------------------------|-------------------------------|
A|-------------------------------|-------------------------------|
E|-------------------------------|-------------------------------|

e|------- ------- ------- -------|------- ------- ------- -------|
B|--------0---1-------0----------|-------------------------------|
G|------------------------2------|-------------------------------|
D|3------------------------------|-------------------------------|
A|-------------------------------|-------------------------------|
E|-------------------------------|-------------------------------|




C Csus4 C Csus4 C
e|------- ------- ------- -------|------- ------- ------- -------|
B|5-------5-------6-------5------|5-------5-------6-------5------|
G|5-------5-------5-------5------|5-------5-------5-------5------|
D|-------------------------------|-------------------------------|
A|-------------------------------|-------------------------------|
E|-------------------------------|-------------------------------|

e|3------ ------- ------- -------|3------ ------- ------- -------|
B|5------------------------------|5------------------------------|
G|5------------------------------|5------------------------------|
D|-------------------------------|-------------------------------|
A|-------------------------------|-------------------------------|
E|-------------------------------|-------------------------------|

e|------- ------- ------- 0------|------- ------- ------- -------|
B|--------0---1-------3----------|-------------------------------|
G|0------------------------------|-------------------------------|
D|-------------------------------|-------------------------------|
A|-------------------------------|-------------------------------|
E|-------------------------------|-------------------------------|





G5 F5
e|------- ------- ------- -------|------- ------- ------- -------|
B|8-------8-------5-------6------|6-------5-H-6---5-H-6---8-P-6--|
G|7-------7-------5-------5------|5-------5-------5-------5------|
D|-------------------------------|-------------------------------|
A|-------------------------------|-------------------------------|
E|-------------------------------|-------------------------------|

e|7------ ------- ------- -------|5------ ------- ------- -------|
B|8------------------------------|6------------------------------|
G|7------------------------------|5------------------------------|
D|9------------------------------|7------------------------------|
A|-------------------------------|-------------------------------|
E|-------------------------------|-------------------------------|

e|12-\-12 8---7-\ 5---3-- 1-P-0--|1-/-3-- 3---1-/ 3---3-- 1-P-0--|
B|-------------------------------|-------------------------------|
G|12-\-12-9---7-\-5---4---2-P-0--|2-/-4---4---2-/-4---4---2-P-0--|
D|-------------------------------|-------------------------------|
A|-------------------------------|-------------------------------|
E|-------------------------------|-------------------------------|




C G
e|------- ------- ------- -------|------- ------- ------- -------|
B|5-------5-------6-------5------|6------------------------------|
G|5-------5-------5-------5------|7------------------------------|
D|-------------------------------|-------------------------------|
A|-------------------------------|-------------------------------|
E|-------------------------------|-------------------------------|

e|3------ ------- ------- -------|3------ ------- ------- -------|
B|5------------------------------|3------------------------------|
G|5------------------------------|4------------------------------|
D|5------------------------------|5------------------------------|
A|-------------------------------|-------------------------------|
E|-------------------------------|-------------------------------|

e|----0-- ------- ------- -------|------- ------- ------- -------|
B|1-----------1-------1----------|-------------------------------|
G|----0-----------0--------------|-------------------------------|
D|2-----------2-------2----------|-------------------------------|
A|----------------3---------3\2P0|-------------------------------|
E|-------------------------------|3------------------------------|






C Csus4 C Csus4 C
e|------- ------- ------- -------|------- ------- ------- -------|
B|5---------------6--------------|5-------5-------5H6-----5------|
G|5---------------5--------------|5-------5-------5-------5------|
D|-------------------------------|-------------------------------|
A|-------------------------------|-------------------------------|
E|-------------------------------|-------------------------------|
Da da da da da
e|------- ------- ------- -------|------- ------- ------- -------|
B|-------------------------------|-------------------------------|
G|------------------4/5----------|--------------4/5--------------|
D|------------------6/7----------|--------------6/7--------------|
A|3------------------------------|3------------------------------|
E|-------------------------------|-------------------------------|

e|3------ ------- ------- -------|3------ ------- ------- -------|
B|5------------------------------|5------------------------------|
G|5------------------------------|5------------------------------|
D|-------------------------------|-------------------------------|
A|-------------------------------|-------------------------------|
E|-------------------------------|-------------------------------|





Csus4 C Csus4 C
e|------- ------- ------- -------|------- ------- ------- -------|
B|5---------------6--------------|5-------5-------5H6-----5------|
G|5---------------5--------------|5-------5-------5-------5------|
D|-------------------------------|-------------------------------|
A|-------------------------------|-------------------------------|
E|-------------------------------|-------------------------------|
Da da da da da
e|------- ------- ------- -------|------- ------- ------- -------|
B|-------------------------------|-------------------------------|
G|------------------4/5----------|--------------4/5--------------|
D|------------------6/7----------|--------------6/7--------------|
A|3------------------------------|3------------------------------|
E|-------------------------------|-------------------------------|

e|3------ ------- ------- -------|6------ ------- ------- -------|
B|5------------------------------|5------------------------------|
G|5------------------------------|5------------------------------|
D|-------------------------------|-------------------------------|
A|-------------------------------|-------------------------------|
E|-------------------------------|-------------------------------|





F5
e|------- ------- ------- -------|------- ------- ------- -------|
B|6-------5---8-------6---6------|6-------6-------8-------6------|
G|5-------5---5-------5---5------|5-------5-------5-------5------|
D|-------------------------------|-------------------------------|
A|-------------------------------|-------------------------------|
E|-------------------------------|-------------------------------|
Da da da da da
e|------- ------- ------- -------|------- ------- ------- -------|
B|-------------------------------|-------------------------------|
G|-------------------------------|-------------------------------|
D|1-------1-------1-------1------|1-------1-------1--------------|
A|3-------3-------3-------3------|3-------3-------3-------3------|
E|-------------------------------|-------------------------------|

e|------- ------- ------- -------|------- ------- ------- -------|
B|-------------------------------|--5/6---5---3-------1----------|
G|-------------------------------|--5/7---5---3-------2----------|
D|3------------------------------|-------------------------------|
A|-------------------------------|-------------------------------|
E|-------------------------------|-------------------------------|

e|5------ ------- ------- -------|5------ ------- ------- -------|
B|6------------------------------|6------------------------------|
G|5------------------------------|5------------------------------|
D|-------------------------------|-------------------------------|
A|-------------------------------|-------------------------------|
E|-------------------------------|-------------------------------|





C Csus4 C Csus4 C
e|------- ------- ------- -------|------- ------- ------- -------|
B|5---------------6--------------|5-------5-------5H6-----5------|
G|5---------------5--------------|5-------5-------5-------5------|
D|-------------------------------|-------------------------------|
A|-------------------------------|-------------------------------|
E|-------------------------------|-------------------------------|
Da da da da da
e|------- ------- ------- -------|------- ------- ------- -------|
B|-------------------------------|-------------------------------|
G|-------------------------------|---------------/5--------------|
D|-------------------------------|------------5-5/7--------------|
A|-------------------------------|3------------------------------|
E|-------------------------------|-------------------------------|

e|3------ ------- ------- -------|3------ ------- ------- -------|
B|5------------------------------|5------------------------------|
G|5------------------------------|5------------------------------|
D|-------------------------------|-------------------------------|
A|-------------------------------|-------------------------------|
E|-------------------------------|-------------------------------|






G5 F5
e|------- ------- ------- -------|------- ------- ------- -------|
B|8-------8-------5-------6------|6---------------6-------8------|
G|7-------7-------5-------5------|5---------------5-------5------|
D|-------------------------------|-------------------------------|
A|-------------------------------|-------------------------------|
E|-------------------------------|-------------------------------|
Daaaaaaaaaaaaaaaaaaaaaaaaaaaaaaaahhhhhhhhhhhhhhhhhhhhhhhhhhhhhh
e|7------ ------- ------- -------|5------ ------- ------- -------|
B|8------------------------------|6------------------------------|
G|7------------------------------|5------------------------------|
D|-------------------------------|-------------------------------|
A|-------------------------------|-------------------------------|
E|-------------------------------|-------------------------------|

e|12-\-12 8---7-\ 5---3-- 1-P-0--|1-/-3-- 3---1-/ 3---3-- 1-P-0--|
B|-------------------------------|-------------------------------|
G|12-\-12-9---7-\-5---4---2-P-0--|2-/-4---4---2-/-4---4---2-P-0--|
D|-------------------------------|-------------------------------|
A|-------------------------------|-------------------------------|
E|-------------------------------|-------------------------------|




(.
C
e|------- ------- ------- -------|------- ------- ------- -------|
B|5-------5-------6-------5------|5------------------------------|
G|5-------5-------5-------5------|5------------------------------|
D|-------------------------------|-------------------------------|
A|-------------------------------|-------------------------------|
E|-------------------------------|-------------------------------|

e|3------ ------- ------- -------|3------ ------- ------- -------|
B|5------------------------------|5------------------------------|
G|5------------------------------|5------------------------------|
D|5------------------------------|5------------------------------|
A|-------------------------------|-------------------------------|
E|-------------------------------|-------------------------------|

e|------- 0------ ------- -------|0------ ------- ------- -------|
B|1---------------1--------------|1------------------------------|
G|--------0---------------0------|0------------------------------|
D|2---------------2--------------|2------------------------------|
A|------------------------3------|3------------------------------|
E|-------------------------------|0------------------------------|


e|------- ------- ------- -------|------- 12H13H12H13H12H13H12H13|
B|-------------------------------|-------------------------------|
G|-------------------------------|-------------------------------|
D|-------------------------------|-------------------------------|
A|-------------------------------|-------------------------------|
E|-------------------------------|-------------------------------|

e|------- ------- ------- -------|------- ------- 7H8-7H8 7------|
B|-------------------------------|----------------------------8--|
G|-------------------------------|-----------------------------10|
D|-------------------------------|-------------------------------|
A|-------------------------------|-------------------------------|
E|-------------------------------|-------------------------------|




e|12H13H12H13H12H13H12H13H12H13H12H13H12h13H12H13H12H13H12H13H12H|
B|---------------------------------------------------------------|
G|---------------------------------------------------------------|
D|---------------------------------------------------------------|
A|---------------------------------------------------------------|
E|---------------------------------------------------------------|

e|---8---------------------12------13--------10----------10------|
B|------10--8-----12--13--13-13-15-----13-15-----12-10------12---|
G|------------10---------12----------------------------12--------|
D|---------------------------------------------------------------|
A|---------------------------------------------------------------|
E|---------------------------------------------------------------|

e|---------------------------------------------------------------|
B|---------------------------------------------------------------|
G|--------------------------------------2------------------------|
D|--------------------------------------2------------------------|
A|--------------------------------------3------------------------|
E|--------------------------------------5------------------------|





e|12H13H12H13H12H13H12H13H12H13H12h13h12131213 12H13 12H13 12H13
B|---------------------------------------------------------------|
G|---------------------------------------------------------------|
D|---------------------------------------------------------------|
A|---------------------------------------------------------------|
E|---------------------------------------------------------------|

e|------------------7---5----------------------------------------|
B|13-12--10-----8--6------8-5---8--------------------------------|
G|------------9--------------------------------------------------|
D|---------------------------------------------------------------|
A|---------------------------------------------------------------|
E|---------------------------------------------------------------|

e|---------------------------------------------------------------|
B|---------------------------------------------------------------|
G|---------------------------------------1----2----2-------------|
D|----------------------------------------------------------4----|
A|------------------------------------------0----0------0--------|
E|---------------------------------------------------------------|





e|13--13---13----------------------------------------------------|
B|-------------13--10-12-----------------------------------------|
G|----------------------14P12--14--------------------------------|
D|---------------------------14------14-12---12------------------|
A|----------------------------------------14------12-1415-14-12--|
E|-------------------------------------------------------------13|

e|------- ------- ------- --------------- ------- ------- -------|
B|---------------------------------------------------------------|
G|---------------------------------------------------------------|
D|-----4---4---4---------------------4---------4-------4-----4---|
A|0-------------------------------0---------0--------------------|
E|--------------------------------------------------4------2-----|






e|----------------------------17---------------------------------|
B|---------------------------17---------------------------------8|
G|-------------------------------------------------------------9-|
D|-------------------------------------------------------12--10--|
A|-14---------------------------12-14151413-14-12-1412--15-12----|
E|-----12-13--12-15--12-12-13-----------------15-13--------------|




e|---------------------------------------------------------------|
B|---------------------------------------------------------------|
G|---------------------------------------------------------------|
D|---4---------4----------------4-----------4------4------4-----4|
A|------------------------------------0--------------------------|
E|2--------2--------2---2---2------------4------4------4-----4---|

............................Fade out...........................





B Bend
R Release
/ slide up
\ slide down
H hammer-on
P pull-off
~ vibrato
+ harmonic
x Mute note
. - play note like a dot in standard notation
^ - ties two notes together
(. Pause

pjvill

Submitted by pjvill at Mon 05 Dec, 2005 5:23 am

Author: ?
Composer: ?
Publisher: ?
Language: English

Reactions

CommonCrawl [Bot]

Follow Muzikum