The Beatles

The Beatles
Everybody's Trying To Be My Baby (Guitar tab)

-----------------------------------------------------------------------------
The Beatles - Everybody's trying to be my baby from Beatles for Sale album
(Released on December the 4th of 1964.)

-----------------------------------------------------------------------------




This is a Beatles cover of Carl Perkins.
It was included in Beatles for Sale album
It has two great rockabily guitar solos.
George Harrison played with a pick but
I have tabbed also a walking bass sequence
with the same chords just for fun.
I hope you like it.






Tabbed by:PJVillanueva




Chords: E 022100
E6 022120
A x02220
B7 x21202




E E E6 E
Well they took some honey from a tree


Dressed it up and they called it me




A
Everybody's trying to be my baby

E
Everybody's trying to be my baby

B7 A E
Everybody's trying to be my baby, now




E
Woked up last night, half past four


fifty women knocking on my door




A
Everybody's trying to be my baby

E
Everybody's trying to be my baby

B7 A E
Everybody's trying to be my baby, now




First solo




E
Went out last night, I didn't stay late


'fore I got home I had nineteen dates




A
Everybody's trying to be my baby

E
Everybody's trying to be my baby

B7 A E
Everybody's trying to be my baby, now





Second solo




E
Went out last night, I didn't stay late


'fore I got home I had nineteen dates





A
Everybody's trying to be my baby

E
Everybody's trying to be my baby

B7 A E
Everybody's trying to be my baby now





E
Well they took some honey from a tree


Dressed it up and they called it me




A
Everybody's trying to be my baby

E
Everybody's trying to be my baby

B7 A E
Everybody's trying to be my baby now







Guitar fills


e|------ 0----- ------ ------|-----0 ------ ------ ------|
B|-------0-----------3-------|-----0------3------2------0|
G|--------------------------0H1-----------1------1------1|
D|---------------------------|---------------------------|
A|---------------------------|---------------------------|
E|---------------------------|---------------------------|





e|------ 0----- ------ ------|-----0 -----0 -----0 ------|
B|-------0-----------3-------|-----0------3------0-------|
G|--------------------------0H1--------------------------|
D|---------------------------|---------------------------|
A|---------------------------|---------------------------|
E|---------------------------|---------------------------|






First solo


e|------ 7----- ------ ------|7----- -----7 ------ -----7|
B|-------0-------------------|0-----------0-------------0|
G|-------------------7-------|-----7-------------7-------|
D|-------------------6-------|-----6-------------6-------|
A|---------------------------|---------------------------|
E|---------------------------|---------------------------|




e|------ 7----- ------ ------|7----- -----7 ------ ------|
B|-------0-------------------|0-----------0--------------|
G|-------------------7-------|-----7-------------7-------|
D|-------------------6-------|-----6-------------6-------|
A|---------------------------|---------------------------|
E|---------------------------|---------------------------|




e|------ 12---- ------ ------|12---- ----12 ------ ------|
B|--------0------------------|-0----------0--------------|
G|------------------12-------|------------------12------7|
D|------------------11-------|------------------11-------|
A|---------------------------|---------------------------|
E|---------------------------|---------------------------|




e|------ 7----- ------ ------|7----- -----7 ------ ------|
B|-------0-------------------|0-----------0--------------|
G|-------------------7-------|---------------------------|
D|-------------------6-------|---------------------------|
A|---------------------------|---------------------------|
E|---------------------------|-------------------4--5--6-|





e|-----7 -----7 -----7 -----7|5----- 5----- 5----- 5-----|
B|-----7------7------7------7|8------8------7------8-----|
G|-----8------8------8------8|6------6------6------6-----|
D|-----7------7------7------7|5------5------5------5-----|
A|-----9------7------9------9|7------7------7------7-----|
E|7--------------------------|5--------------------------|




e|------ 0----- ------ ------|-----0 ------ ------ ------|
B|-------0-----------3-------|------------3------2------0|
G|-------1------------------0H1-----------1------1------1|
D|---------------------------|---------------------------|
A|---------------------------|---------------------------|
E|---------------------------|---------------------------|










Second solo


e|------ ------ ------ ------|------ ------ ------ ------|
B|-------8-----------8-------|8-----------8------8-------|
G|-------7-----------7-------|7-----------7------7-------|
D|-------6-----------6-------|6-----------6------6-------|
A|-------7-----------7-------|7-----------7------7-------|
E|---------------------------|---------------------------|



e|------ ------ ------ ------|------ ------ ------ ------|
B|-------8-----------8-------|8-----------8------8-------|
G|-------7-----------7-------|7-----------7------7-------|
D|-------6-----------6-------|6-----------6------6-------|
A|-------7-----------7-------|7-----------7------7-------|
E|---------------------------|---------------------------|



e|------ 5----- ------ 5-----|5----- -----5 -----5 ------|
B|-------8-------------8-----|8-----------8------8-------|
G|-------6-------------6-----|6-----------6------6-------|
D|-------5-------------5-----|5-----------5------5-------|
A|-------7-------------7-----|7-----------7------7-------|
E|-------5-------------5-----|5-----------5------5-------|




e|------ ------ ------ ------|------ ------ ------ ------|
B|-------8-----------8-------|8-----------8--------------|
G|-------7-----------7-------|7-----------7--------------|
D|-------6-----------6-------|6-----------6--------------|
A|-------7-----------7-------|7-----------7--------------|
E|---------------------------|---------------------------|




e|------ 9----- -----9 ------|7--P-5 ------ -----5 ------|
B|-------7-----------7-------|5-----------8-B-9--5-------|
G|-------8-----------8-------|6-----------6--------------|
D|---------------------------|---------------------------|
A|---------------------------|---------------------------|
E|---------------------------|---------------------------|




e|------ 0----- ------ ------|-----0 -----0 ------ ------|
B|-------0-----------3-------|-----0------3--------------|
G|--------------------------0H1--------------------------|
D|---------------------------|---------------------------|
A|---------------------------|---------------------------|
E|---------------------------|---------------------------|




e|------ 15---- 15---- ----15|------ 15---- 15--12 ------|
B|-------15-----15---------15|-------15-----15-----15----|
G|-------13-----13---------13|-------13-----13-----------|
D|-------14-----14---------14|-------14-----14-----------|
A|---------------------------|---------------------------|
E|---------------------------|---------------------------|





e|------ 15---- ----15 ------|15---- 15---- 15--12 ------|
B|-------15---------15-------|15-----15-----15-----15----|
G|-------13---------13-------|13-----13-----13-----------|
D|-------14---------14-------|14-----14-----14-----------|
A|---------------------------|---------------------------|
E|---------------------------|---------------------------|




e|------ 12---- ----12 ------|12---- ----12 ----12 ------|
B|-------12----------12------|12---------12-----12-------|
G|-------12-----------12-----|12---------12-----12-------|
D|-------11------------11----|11---------11-----11-------|
A|-------12-------------12---|12---------12-----12-------|
E|---------------------------|---------------------------|





e|------ 0----- ------ ------|-----0 ------ ------ ------|
B|-------0-----------3-------|------------3--------------|
G|--------------------------0H1--------------------------|
D|---------------------------|---------------------------|
A|---------------------------|----------------------0--1-|
E|---------------------------|-------------------4-------|




e|-----2 ------ -----2 ------|-----3 -----2 -----2 -----0|
B|-----0------0------0------0|-----0------0------0------0|
G|-----2------2-------------2|------------2------2-------|
D|---------------------------|---------------------------|
A|2--------------------------|---------------------------|
E|---------------------------|---------------------------|




e|------ 0----- ------ ------|-----0 ------ ------ ------|
B|-------0-----------3-------|-----0------3------2------0|
G|--------------------------0H1-----------1------1------1|
D|---------------------------|---------------------------|
A|---------------------------|---------------------------|
E|---------------------------|---------------------------|






Ending

e|------ ------ ------ ------|------ ------ ------ o-----|
B|---------------------------|---------------------0-----|
G|-------7------6------6-----|5------4-------------1-----|
D|-------9------8------8-----|7------6-------------2-----|
A|---7-----------------------|--------------7------2-----|
E|---------------------------|---------------------0-----|




e|------ ------ ------ ------|------ ------ ------ 7-----|
B|------------------------3--|---------------------7-----|
G|-------0------0--2-/-4----4\2---0----------------7-----|
D|---------------------------|-------2----2--------6-----|
A|---------------------------|---------------------7-----|
E|---------------------------|---------------------------|






...................................................................







e|------ 0----- ------ ------|-----0 ------ ------ ------|
B|-------------------3-------|------------3--------------|
G|--------------------------0H1--------------------------|
D|-------2--------------2----|-------2-------------2-----|
A|---------------------------|---------------------------|
E|0--------------0-----------|0-------------0------------|




e|------ 0----- ------ ------|-----0 ------ ------ ------|
B|-------------------3-------|------------3------2------0|
G|--------------------------0H1--------------------------|
D|-------2-------------2-----|-------2-------------2-----|
A|---------------------------|---------------------------|
E|0-------------0------------|0-------------0------------|






e|------ 7----- ------ ----7-|------ -----7 ------ ------|
B|---------------------------|---------------------------|
G|------------------7--------|-----7------------7--------|
D|-------6-------------6-----|-------6-------------6-----|
A|7--------------------------|7--------------------------|
E|--------------7------------|--------------7------------|
.................................................2 times



e|------ 12---- ------ ----12|------ ----12 ------ ------|
B|------------------12-------|---------------------------|
G|---------------------------|----12------------12-------|
D|-------11------------11----|-------11------------11----|
A|12-------------------------|12-------------------------|
E|--------------12-----------|--------------12-----------|



e|------ 7----- ------ ----7-|------ -----7 ------ ------|
B|---------------------------|---------------------------|
G|------------------7--------|-----7------------7--------|
D|-------6-------------6-----|-------6-------------6-----|
A|7--------------------------|7--------------------------|
E|--------------7------------|--------------7------------|




e|------ 2----- ------ ------|3-\-2- -----0 ------ ------|
B|-------------------0-------|-------------------2-------|
G|-------2-------------------|2-----------2--------2-----|
D|-------1-------------1-----|-------1-------------1-----|
A|2--------------------------|2--------------------------|
E|--------------2------------|--------------2------------|




e|0----- ------ ------ ------|
B|---------------7-----------|
G|1--------------6-----------|
D|---------------6-----------|
A|2--------------7-----------|
E|-------0-------------------|






..............................................................



| B Bend
| R Release
| / slide up
| \ slide down
| h hammer-on
| p pull-off
| ~ vibrato
| + harmonic
| x Mute note

pjvill

Submitted by pjvill at Sun 04 Dec, 2005 12:34 pm

Author: ?
Composer: ?
Publisher: ?
Language: English

Reactions

CommonCrawl [Bot]

Follow Muzikum