The Beatles

The Beatles
Drive My Car Ver 4 (Guitar tab)

---------------------------------------------------------------------
THE BEATLES - DRIVE MY CAR (Lennon/McCartney) from RUBBER SOUL
album. Released on 3rd December 1965

---------------------------------------------------------------------

Tabbed by:PJVillanueva






Intro

D x x x x x x x
e|------- ------- ------- -------|------- ---------- ------- -------|
B|-------------------6B7-----5---|7-------7---5------5-------7------|
G|---7--8\7--5---------------5---|7-------7---5------5-------7------|
D|7---------------7--------------|----------------7-----------------|
A|-------------------------------|----------------------------------|
E|-------------------------------|----------------------------------|


Verse
D G
e|------- ------- ------- -------|------- ------- ------- -------|
B|-------------------------------|-------------------------------|
G|-------------------------------|-------------------------------|
D|-------------------7-----------|-------------------------------|
A|5----------7-/--9-----9\7--5---|-------------------5-----------|
E|-------------------------------|3----------3---/7------\5--3---|
Asked a girl what she wanted to be
D G
e|------- ------- ------- -------|------- ------- ------- -------|
B|-------------------------------|-------------------------------|
G|-------------------------------|-------------------------------|
D|--------------------7----------|-------------------------------|
A|5----------7-/--9-----9\7---5--|-------------------5-----------|
E|-------------------------------|3----------3---/7------\5--3---|
She said baby Can't you see
D G
e|------- ------- ------- -------|------- ------- ------- -------|
B|-------------------------------|-------------------------------|
G|-------------------------------|-------------------------------|
D|--------------------7----------|-------------------------------|
A|5----------7-/--9-----9\7---5--|-------------------5-----------|
E|-------------------------------|3----------5--/-7------\5--3---|
I wanna be famous a star of the screen but
A
e|------- ------- ------- -------|------- ------- ------- -------|
B|-------------------------------|-------------------------------|
G|-------------------------------|-------------------------------|
D|-------------------------------|-------------------------------|
A|-------------------------------|--------------------7---9-7----|
E|5---5---5---5---5---5---5---5--|5---5---5---5-/-9-----------9--|
You can do something in be.....tween




Chorus

e|------- ------- ------- -------|------- ------- ------- -------|
B|-------------------------------|-------------------------------|
G|-------------------------------|-------------------------------|
D|-------------------------------|-------------------------------|
A|-------------------------------|-------------------------------|
E|7-------7-------7-------7---5--|3-------3-------3-------3---5--|
Baby you can drive my car
Bm G C Dmsus4 C G
e|------- ------- ------- -------|------- ------- ------- -------|
B|3-------3----------3-------3---|---3-------5---/6----5-----3---|
G|4-------4----------4-------4---|---4-------5---/7----5-----4---|
D|4-------4----------4-------4---|---5-------5---/5----5-----5---|
A|-------------------------------|-------------------------------|
E|-------------------------------|-------------------------------|


e|------- ------- ------- -------|------- ------- ------- -------|
B|-------------------------------|-------------------------------|
G|-------------------------------|-------------------------------|
D|-------------------------------|-------------------------------|
A|-------------------------------|-------------------------------|
E|7-------7-------7-----7-7---5--|3-------3-------3-------3---5--|
yes I'm gonna be a star
Bm G C Dmsus4 C G
e|2------ ------- ------- -------|------- ------- ------- -------|
B|3-------3----------3-------3---|---3-------5---/6----5-----3---|
G|4-------4----------4-------4---|---4-------5---/7----5-----4---|
D|--------4----------4-------4---|---5-------5---/5----5-----5---|
A|-------------------------------|-------------------------------|
E|-------------------------------|-------------------------------|



e|------- ------- ------- -------|------- ------- ------- -------|
B|-------------------------------|-------------------------------|
G|-------------------------------|-------------------------------|
D|-------------------------------|-------------------------------|
A|-------------------------------|----------------0--------------|
E|7-------7-------7-------7------|0---2---3---0-------3---2---0--|
Baby you can drive my car and maybe I love
Bm Em A
e|2------ ------- ------- -------|------- ------- ------- -------|
B|3-------3--------3---------3---|--------0-----------2------2---|
G|4-------4--------4---------4---|--------0-----------2------2---|
D|--------4--------4---------4---|--------2-----------2------2---|
A|-------------------------------|--------2-------0--------------|
E|-------------------------------|0---0-------0------------------|



e|------- ------- ------- -------|------- ------- ------- -------|
B|-------------------------------|-------------------------------|
G|-------------------------------|-------------------------------|
D|-------------------------------|-------------------------------|
A|5-------5-----------5----------|--------------------7----------|
E|------------5-/-7-------7---3--|5-------5----5-/9-------9---5--|
you
D G A
e|------- ------- ------- -------|------- ------- ------- -------|
B|3-------3-----------0------0---|2------------------------------|
G|2-------2-----------0------0---|2------------------------------|
D|0-------0-----------0------0---|2------------------2-----------|
A|-------------------------------|0-------0----0-/4------\2--0---|
E|----------------3--------------|-------------------------------|





Verse
D G
e|------- ------- ------- -------|------- ------- ------- -------|
B|-------------------------------|-------------------------------|
G|-------------------------------|-------------------------------|
D|--------------------7----------|-------------------------------|
A|5-------5------/9------\7---5--|--------------------5----------|
E|-------------------------------|3----------3---/7------\5---3--|
I told a girl that my prospects were good

D G
e|------- ------- ------- -------|------- ------- ------- -------|
B|-------------------------------|-------------------------------|
G|-------------------------------|-------------------------------|
D|--------------------7----------|-------------------------------|
A|5-------5-----5/9------\7---5--|--------------------5----------|
E|-------------------------------|3-------3-----3/7-------7-\-3--|
and she said baby, it's understood

D G
e|------- ------- ------- -------|------- ------- ------- -------|
B|-------------------------------|-------------------------------|
G|-------------------------------|-------------------------------|
D|--------------------7----------|-------------------------------|
A|5-------------5/9------\7---5--|--------------------5----------|
E|-------------------------------|3-------------/-7------\5---3--|
Working for peanuts is all very fine but

A
e|------- ------- ------- -------|------- ------- ------- -------|
B|-------------------------------|-------------------------------|
G|-------------------------------|-------------------------------|
D|-------------------------------|-------------------------------|
A|-------------------------------|--------------------7---9-7----|
E|5---5---5---5---5---5---5---5--|5---5---5---5-/-9-----------9--|
I can show you a better time




Chorus
Bm G
e|------- ------- ------- -------|------- ------- ------- -------|
B|-------------------------------|-------------------------------|
G|-------------------------------|-------------------------------|
D|-------------------------------|-------------------------------|
A|-------------------------------|-------------------------------|
E|7-------7-------7-------7---5--|3-------3-------3-------3---5--|
Baby you can drive my car
Bm G C Dmsus4 C G
e|------- ------- ------- -------|------- ------- ------- -------|
B|3-------3----------3-------3---|---3-------5---/6----5-----3---|
G|4-------4----------4-------4---|---4-------5---/7----5-----4---|
D|4-------4----------4-------4---|---5-------5---/5----5-----5---|
A|2-------2----------2-------2---|-------------------------------|
E|-------------------------------|-------------------------------|

Bm G
e|------- ------- ------- -------|------- ------- ------- -------|
B|-------------------------------|-------------------------------|
G|-------------------------------|-------------------------------|
D|-------------------------------|-------------------------------|
A|-------------------------------|-------------------------------|
E|7-------7-------7-----7-7---5--|3-------3-------3-------3---5--|
yes I'm gonna be a star
Bm G C Dmsus4 C G
e|2------ ------- ------- -------|------- ------- ------- -------|
B|3-------3----------3-------3---|---3-------5---/6----5-----3---|
G|4-------4----------4-------4---|---4-------5---/7----5-----4---|
D|--------4----------4-------4---|---5-------5---/5----5-----5---|
A|-------------------------------|-------------------------------|
E|-------------------------------|-------------------------------|

Bm Em A
e|------- ------- ------- -------|------- ------- ------- -------|
B|-------------------------------|-------------------------------|
G|-------------------------------|-------------------------------|
D|-------------------------------|-------------------------------|
A|-------------------------------|----------------0--------------|
E|7-------7-------7-------7------|0---2---3---0-------3---2---0--|
Baby you can drive my car and maybe I love
Bm Em A
e|2------ ------- ------- -------|------- ------- ------- -------|
B|3-------3--------3---------3---|----0------0----2--------------|
G|4-------4--------4---------4---|----0------0----2--------------|
D|--------4--------4---------4---|----2------2----2--------------|
A|-------------------------------|----2------2----0--------------|
E|-------------------------------|0------------------------------|

D A
e|------- ------- ------- -------|------- ------- ------- -------|
B|-------------------------------|-------------------------------|
G|-------------------------------|-------------------------------|
D|-------------------------------|-------------------------------|
A|5-------5-----------5----------|--------------------7----------|
E|------------5-/-7-------7---3--|5-------5----5-/9-------9---5--|
you BeepBeep'm BeepBeep yeah
D G A
e|2------ 2------ ------- -------|------- ------- ------- -------|
B|3-------3-------0-------0---2--|-------------------------------|
G|2-------2-------0-------0---2--|-------------------------------|
D|0-------0-------0-------0---2--|-------------------------------|
A|----------------------------0--|-------------------------------|
E|----------------3-------3------|-------------------------------|





Solo (Use a bottleneck for the slides-
Standard tuning)

|------- ------- ------- -------|
|-------------------------------|
|-------------------------------|
|-------------------------------|
|----------------------------12-|
|-------------------------------|
D G
e|------- ------- ------- -------|------- ------- ------- -------|
B|-------------------------------|-------------------------------|
G|----------13/15------13\12--10-|12------12---12-10B1112--------|
D|10---/--12---------12----------|-------------------------------|
A|-------------------------------|----------------------------12-|
E|-------------------------------|-------------------------------|
D G
e|------- ------- ------- -------|------- ------- ------- -------|
B|-------------------------------|-------------------------------|
G|----------13/15------13\12--10-|12------12---12-10B11----------|
D|10---/--12---------12----------|---------------------12\-------|
A|-------------------------------|----------------------------12-|
E|-------------------------------|-------------------------------|
D G
e|------- ------- ------- -------|------- ------- ------- -------|
B|-------------------------------|-------------------------------|
G|----------13/15------13\12--10-|12------12---12-10B11----------|
D|10--/---12---------12----------|---------------------12--------|
A|-------------------------------|-------------------------------|
E|-------------------------------|-------------------------------|
A
e|------- ------- ------- -------|------- ------- ------- -------|
B|10------10---/--13--13-/15--15|/18-13---/--15------------------|
G|-------------------------------|-------------------------------|
D|-------------------------------|-------------------------------|
A|-------------------------------|-------------------------------|
E|-------------------------------|-------------------------------|



Chorus

Bm G
Baby you can drive my car
Bm G
Yes I'm gonna be a star
Bm Em
Baby you can drive my car
A D G A
And maybe I love you



Verse

D G
I told a girl I can start right away
D G
And she said listen babe I got something to say
D G
I got no car and it's breaking my heart
A
But I've found a driver and that's a start


Chorus

Bm G
Baby you can drive my car
Bm G
Yes I'm gonna be a star
Bm Em
Baby you can drive my car
A D G A
And maybe I love you


Coda
D G
e|------- ------- ------- -------|------- ------- ------- -------|
B|-------------------------------|-------------------------------|
G|-------------------------------|-------------------------------|
D|-------------------------------|-------------------------------|
A|-------------------------------|5-------5----------5-----------|
E|-------------------------------|--------------/-7-----\-5--3---|
Beep beep'm beep beep yeah
e|------- ------- ------- -------|------- ------- ------- -------|
B|-------------------------------|3-------3----------0-------0---|
G|-------------------------------|2-------2----------0-------0---|
D|-------------------------------|0-------0----------0-------0---|
A|-------------------------------|-------------------------------|
E|-------------------------------|----------------3--------------|

A D G
e|------- ------- ------- -------|------- ------- ------- -------|
B|-------------------------------|-------------------------------|
G|-------------------------------|-------------------------------|
D|-------------------------------|-------------------------------|
A|-------------------7----9-7----|5-------5----------5-----------|
E|5-------5----5-/9-----------9--|--------------/-7-----\-5--3---|
Beep beep'm beep beep yeah
e|------- ------- ------- -------|------- ------- ------- -------|
B|2-------2----------2-------2---|3-------3----------0-------0---|
G|2-------2----------2-------2---|2-------2----------0-------0---|
D|2-------2----------2-------2---|0-------0----------0-------0---|
A|0---------------0--------------|-------------------------------|
E|-------------------------------|----------------3--------------|


A D G
e|------- ------- ------- -------|------- ------- ------- -------|
B|-------------------------------|-------------------------------|
G|-------------------------------|-------------------------------|
D|-------------------------------|-------------------------------|
A|-------------------7----9-7----|5-------5----------5-----------|
E|5-------5----5-/9-----------9--|--------------/-7-----\-5--3---|
Beep beep'm beep beep yeah
..............Fade.............
e|------- ------- ------- -------|------- ------- ------- -------|
B|2-------2----------2-------2---|3-------3----------0-------0---|
G|2-------2----------2-------2---|2-------2----------0-------0---|
D|2-------2----------2-------2---|0-------0----------0-------0---|
A|0---------------0--------------|-------------------------------|
E|-------------------------------|----------------3--------------|


A D G
e|------- ------- ------- -------|------- ------- ------- -------|
B|-------------------------------|-------------------------------|
G|-------------------------------|-------------------------------|
D|-------------------------------|-------------------------------|
A|-------------------7----9-7----|5-------5----------5-----------|
E|5-------5----5-/9-----------9--|--------------/-7-----\-5--3---|
Beep beep'm beep beep yeah
...............................................................
e|------- ------- ------- -------|------- ------- ------- -------|
B|2-------2----------2-------2---|3-------3----------0-------0---|
G|2-------2----------2-------2---|2-------2----------0-------0---|
D|2-------2----------2-------2---|0-------0----------0-------0---|
A|0---------------0--------------|-------------------------------|
E|-------------------------------|----------------3--------------|



A D G
e|------- ------- ------- -------|------- ------- ------- -------|
B|-------------------------------|-------------------------------|
G|-------------------------------|-------------------------------|
D|-------------------------------|-------------------------------|
A|-------------------7----9-7----|5-------5----------5-----------|
E|5-------5----5-/9-----------9--|--------------/-7-----\-5--3---|
Beep beep'm beep beep yeah
...............................................................
e|------- ------- ------- -------|------- ------- ------- -------|
B|2-------2----------2-------2---|3-------3----------0-------0---|
G|2-------2----------2-------2---|2-------2----------0-------0---|
D|2-------2----------2-------2---|0-------0----------0-------0---|
A|0---------------0--------------|-------------------------------|
E|-------------------------------|----------------3--------------|







B Bend
R Release
/ slide up
\ slide down
H hammer-on
P pull-off
~ vibrato
+ harmonic
x Mute note
. - play note like a dot in standard notation
^ - ties two notes together

pjvill

Submitted by pjvill at Sat 03 Dec, 2005 12:14 pm

Author: ?
Composer: ?
Publisher: ?
Language: English

Reactions

CommonCrawl [Bot]

Follow Muzikum