The Beatles

The Beatles
Don't Bother Me (Guitar tab)

------------------------------------------------------------------------


THE BEATLES - DON'T BOTHER ME (Lennon/McCartney) From WITH THE BEATLES
album. Released on 22nd November 1963.


------------------------------------------------------------------------

Tabbed by:PJVillanueva






Since she's been gone I want no one to talk to me.
It's not the same but I'm to blame, it's plain to see.

So go away, leave me alone, don't bother me.

I can't believe that she would leave me on my own.
It's just not right when every night I'm all alone.

I've got no time for you right now, don't bother me.

I know I'll never be the same if I don't get her back again.
Because I know she'll always be the only girl for me.

But 'till she's here please don't come near, just stay away.
I'll let you know when she's come home. Until that day,

Don't come around, leave me alone, don't bother me.

Solo

I've got no time for you right now, don't bother me.

I know I'll never be the same if I don't get her back again.
Because I know she'll always be the only girl for me.

But 'till she's here please don't come near, just stay away.
I'll let you know when she's come home. Until that day,

Don't come around, leave me alone, don't bother me.
Don't bother me.
Don't bother me.
Don't bother me.
Don't bother me.






D Dadd9 Dsus4
e|2------ ------- ------- -------|------- ------- ------- -------|
B|3---------------3--------------|3------------------------------|
G|2---------------2--------------|2---------------0--------------|
D|0---------------4--------------|2---------------0--------------|
A|-------------------------------|-------------------------------|
E|-------------------------------|-------------------------------|

Em
e|0------ ------- ------- -------|------- ------- ------- -------|
B|0------------------------------|-------------------------------|
G|0------------------------------|-------------------------------|
D|2-------2-----------0----------|2------------------------------|
A|2-------2-----------2----------|2------------------------------|
E|0------------------------------|0----------------------------/-|
Since she's been gone
B A
e|------- ------- ------- -------|------- ------- ------- -------|
B|-------------------------------|-------------------------------|
G|-------------------------------|-------------------------------|
D|--------9-------7--------------|--------7-------7---5----------|
A|--------9-------7---9----------|--------7-------7---5----------|
E|7------------------------------|-------------------------------|
I want no one to talk to
G Em
e|------- ------- ------- -------|------- ------- ------- -------|
B|-------------------------------|-------------------------------|
G|-------------------------------|-------------------------------|
D|--------5-------5---3-------2--|---2--------0------------------|
A|--------5-------5---3-------2--|---2--------0-------2---0------|
E|-------------------------------|----------------------------2-/|
me It's not the same
B A
e|------- ------- ------- -------|------- ------- ------- -------|
B|-------------------------------|-------------------------------|
G|-------------------------------|-------------------------------|
D|--------9-------9---7----------|--------7-------4---4----------|
A|--------9-------9---7----------|--------7-------5---5----------|
E|7------------------------------|-------------------------------|
but I'm to blame, it's plain to
G
e|------- ------- ------- -------|------- ------- ------- -------|
B|-------------------------------|-------------------------------|
G|-------------------------------|-------------------------------|
D|5-------5-----------5-------5--|5------------------------------|
A|5-------5-----------5-------5--|5------------------------------|
E|3-------3-----------3-------3--|3------------------------------|
see. So go a.......way,
Em A
e|7------ ------- ------- -------|-9----- ------- ------- -------|
B|8------------------------------|10-----------------------------|
G|9------------------------------|-9-----------------------------|
D|9------------------------------|-7-----------------------------|
A|7------------------------------|-------------------------------|
E|-------------------------------|-------------------------------|
leave me a........lone Don't bother me
Em
e|7------ ------- ------- -------|7------ ------- ------- -------|
B|8------------------------------|8------------------------------|
G|9------------------------------|9------------------------------|
D|9------------------------------|9------------------------------|
A|7------------------------------|7------------------------------|
E|-------------------------------|-------------------------------|
I can't be....lieve
B A
e|------- ------- ------- -------|------- ------- ------- -------|
B|-------------------------------|-------------------------------|
G|-------------------------------|-------------------------------|
D|--------9-------7--------------|--------7-------7---5----------|
A|--------9-------7---9----------|--------7-------7---5----------|
E|7------------------------------|-------------------------------|
that she would leave me on my
G Em
e|------- ------- ------- -------|------- ------- ------- -------|
B|-------------------------------|-------------------------------|
G|-------------------------------|-------------------------------|
D|--------5-------5---3-------2--|---2--------0------------------|
A|--------5-------5---3-------2--|---2--------0-------2----------|
E|-------------------------------|------------------------2---2-/|
own It's just not right
B A D
e|------- ------- ------- -------|------- ------- ------- -------|
B|-------------------------------|-------------------------------|
G|-------------------------------|-------------------------------|
D|--------9-------7--------------|--------7-------4---4----------|
A|--------9-------7---9----------|--------7-------5---5----------|
E|7------------------------------|-------------------------------|
when every night I'm all a......
G
e|------- ------- ------- -------|------- ------- ------- -------|
B|-------------------------------|-------------------------------|
G|-------------------------------|-------------------------------|
D|5-------5-------5---5-------5--|5------------------------------|
A|5-------5-------5---5-------5--|5------------------------------|
E|3-------3-------3---3-------3--|3------------------------------|
lone. I've got no time
Em A
e|7------ ------- ------- -------|-9----- ------- ------- -------|
B|8------------------------------|10-----------------------------|
G|9------------------------------|-9-----------------------------|
D|9------------------------------|-7-----------------------------|
A|7------------------------------|-------------------------------|
E|-------------------------------|-------------------------------|
for you right now, don't bother me.
Em
e|7------ ------- ------- -------|7------ ------- ------- -------|
B|8------------------------------|8------------------------------|
G|9------------------------------|9------------------------------|
D|9------------------------------|9------------------------------|
A|7------------------------------|7------------------------------|
E|-------------------------------|-------------------------------|
I know I'll
D Dadd9 D
e|2------ ------- ------- -------|2------ ------- ------- -------|
B|3------------------------------|3---------------3-------3------|
G|2------------------------------|2---------------2-------2------|
D|0------------------------------|4---------------2-------0------|
A|-------------------------------|-------------------------------|
E|-------------------------------|-------------------------------|
never be the same
Em
e|0------ ------- ------- -------|0------ ------- ------- -------|
B|0------------------------------|0------------------------------|
G|0------------------------------|0------------------------------|
D|2------------------------------|2------------------------------|
A|2------------------------------|2------------------------------|
E|0------------------------------|0------------------------------|
if I don't
D Dadd9 D
e|2------ ------- 2------ -------|2------ ------- 2------ -------|
B|3---------------3--------------|3---------------3--------------|
G|2---------------2--------------|2---------------2--------------|
D|0---------------4--------------|2---------------0--------------|
A|-------------------------------|-------------------------------|
E|-------------------------------|-------------------------------|
get her back a...........
Em
e|0------ ------- ------- -------|0------ ------- ------- -------|
B|0------------------------------|0------------------------------|
G|0------------------------------|0------------------------------|
D|2------------------------------|2------------------------------|
A|2------------------------------|2------------------------------|
E|0------------------------------|0------------------------------|
gain Be......cause I
Bm
e|2------ ------- ------- -------|2------ ------- 2------ -------|
B|3------------------------------|3---------------3--------------|
G|4------------------------------|4---------------4--------------|
D|4------------------------------|4---------------4--------------|
A|2------------------------------|2---------------2--------------|
E|-------------------------------|-------------------------------|
know she'll al....................ways
Am
e|0------ ------- ------- -------|0------ ------- ------- -------|
B|1------------------------------|1------------------------------|
G|2------------------------------|2------------------------------|
D|2------------------------------|2------------------------------|
A|0------------------------------|0------------------------------|
E|-------------------------------|-------------------------------|
be the
C
e|0------ ------- ------- -------|0------ ------- 0------ -------|
B|1------------------------------|1---------------1--------------|
G|0------------------------------|0---------------0--------------|
D|2------------------------------|2---------------2--------------|
A|3------------------------------|3---------------3--------------|
E|-------------------------------|-------------------------------|
on......................ly girl for
Em
e|0------ ------- ------- -------|0------ ------- ------- -------|
B|0---------------------------0--|0------------------------------|
G|0---------------------------0--|0------------------------------|
D|2------------------------------|2------------------------------|
A|2------------------------------|2------------------------------|
E|0------------------------------|0------------------------------|
me But 'till she's here
B A
e|------- ------- ------- -------|------- ------- ------- -------|
B|-------------------------------|-------------------------------|
G|-------------------------------|-------------------------------|
D|--------9-------7--------------|--------7-------7---5----------|
A|--------9-------7---9----------|--------7-------7---5----------|
E|7------------------------------|-------------------------------|
please don't come near, just stay a.......way.
G Em
e|------- ------- ------- -------|------- ------- ------- -------|
B|-------------------------------|-------------------------------|
G|-------------------------------|-------------------------------|
D|--------5-------5---3-------2--|---2--------0------------------|
A|--------5-------5---3-------2--|---2--------0-------2---0------|
E|-------------------------------|----------------------------2-/|
I'll let you know
B A
e|------- ------- ------- -------|------- ------- ------- -------|
B|-------------------------------|-------------------------------|
G|-------------------------------|-------------------------------|
D|--------9-------7--------------|--------7-------4---4----------|
A|--------9-------7---9----------|--------7-------5---5----------|
E|7------------------------------|-------------------------------|
when she's come home. Un......til that
G
e|------- ------- ------- -------|------- ------- ------- -------|
B|-------------------------------|-------------------------------|
G|-------------------------------|-------------------------------|
D|--------5-----------5----------|5------------------------------|
A|--------5-----------5----------|5------------------------------|
E|--------3-----------3----------|3------------------------------|
day, Don't come a.....round,
Em A
e|7------ ------- ------- -------|-9----- ------- ------- -------|
B|8------------------------------|10-----------------------------|
G|9------------------------------|-9-----------------------------|
D|9------------------------------|-7-----------------------------|
A|7------------------------------|-------------------------------|
E|-------------------------------|-------------------------------|
leave me a.........lone, don't bother me.


Solo
Em
e|7------ ------- ------- -------|7------ ------- ------- -------|
B|8------------------------------|8------------------------------|
G|9------------------------------|9------------------------------|
D|9------------------------------|9------------------------------|
A|7------------------------------|7------------------------------|
E|-------------------------------|-------------------------------|

e|------- ------- ------- -------|------- ------- ------- -------|
B|-------------------------------|-------------------------------|
G|-------------------------------|-------------------------------|
D|-------------------------------|----------------5---7-------7-/
A|-------------------------------|--------7----------------------|
E|-------------------------------|--------0----------------------|


B A
e|------- ------- ------- -------|------- ------- ------- -------|
B|-------------------------------|-------------------------------|
G|-------------------------------|-------------------------------|
D|--------9-------7--------------|--------7-------7---5----------|
A|--------9-------7---9----------|--------7-------7---5----------|
E|7------------------------------|-------------------------------|

e|------- ------- ------- -------|------- ------- ------- -------|
B|-------------------------------|--------8---10--10B12---8------|
G|--------------------8----------|----9--------------------------|
D|9-------9-----7H9--------------|-------------------------------|
A|-------------------------------|-------------------------------|
E|-------------------------------|-------------------------------|


G Em
e|------- ------- ------- -------|------- ------- ------- -------|
B|-------------------------------|-------------------------------|
G|-------------------------------|-------------------------------|
D|--------5-------5---3-------2--|---2--------0------------------|
A|--------5-------5---3-------2--|---2--------0-------2---0------|
E|-------------------------------|----------------------------2-/|

e|------- ------- ------- -------|------- ------- ------- -------|
B|-------------------------------|-------------------------------|
G|----9-------9---9---7H9P7------|-------------------------------|
D|-------------------------------|9-----------7-------7-------7-/|
A|-------------------------------|----------------10-------------|
E|-------------------------------|-------------------------------|


B A
e|------- ------- ------- -------|------- ------- ------- -------|
B|-------------------------------|-------------------------------|
G|-------------------------------|-------------------------------|
D|--------9-------9---7----------|--------7----------------------|
A|--------9-------9---7----------|--------7----------------------|
E|7------------------------------|-------------------------------|

e|------- ------- ------- -------|------- ------- ------- -------|
B|-------------------------------|-------------------------------|
G|--------------------7-------7--|7H9-----9-------9-P-7----------|
D|9-------9---7-/-9--------------|------------------------9---7-/|
A|-------------------------------|-------------------------------|
E|-------------------------------|-------------------------------|


G
e|------- ------- ------- -------|------- ------- ------- -------|
B|-------------------------------|-------------------------------|
G|-------------------------------|-------------------------------|
D|5-------5-------5---5----------|5------------------------------|
A|5-------5-------5---5----------|5------------------------------|
E|3-------3-------3---3----------|3------------------------------|
I've got no time
e|------- ------- ------- -------|------- ------- ------- -------|
B|-------------------------------|-------------------------------|
G|-------------------------------|-------------------------------|
D|9-------9-------9-P-7---5------|-------------------------------|
A|-------------------------------|7------------------------------|
E|-------------------------------|-------------------------------|


Em A
e|7------ ------- ------- -------|-9----- ------- ------- -------|
B|8------------------------------|10-----------------------------|
G|9------------------------------|-9-----------------------------|
D|9------------------------------|-7-----------------------------|
A|7------------------------------|-------------------------------|
E|-------------------------------|-------------------------------|
for you right now, don't bother me.
Em
e|7------ ------- ------- -------|7------ ------- ------- -------|
B|8------------------------------|8------------------------------|
G|9------------------------------|9------------------------------|
D|9------------------------------|9------------------------------|
A|7------------------------------|7------------------------------|
E|-------------------------------|-------------------------------|
I know I'll
D Dadd9 D
e|2------ ------- 2------ -------|2------ ------- 2------ -------|
B|3---------------3--------------|3---------------3--------------|
G|2---------------2--------------|2---------------2--------------|
D|0---------------4--------------|2---------------0--------------|
A|-------------------------------|-------------------------------|
E|-------------------------------|-------------------------------|
never be the same
Em
e|0------ ------- ------- -------|0------ ------- ------- -------|
B|0------------------------------|0------------------------------|
G|0------------------------------|0------------------------------|
D|2------------------------------|2------------------------------|
A|2------------------------------|2------------------------------|
E|0------------------------------|0------------------------------|
if I don't
D Dadd9 D
e|2------ ------- 2------ -------|2------ ------- 2------ -------|
B|3---------------3--------------|3---------------3--------------|
G|2---------------2--------------|2---------------2--------------|
D|0---------------4--------------|2---------------0--------------|
A|-------------------------------|-------------------------------|
E|-------------------------------|-------------------------------|
get her back a...........
Em
e|0------ ------- ------- -------|0------ ------- ------- -------|
B|0------------------------------|0------------------------------|
G|0------------------------------|0------------------------------|
D|2------------------------------|2------------------------------|
A|2------------------------------|2------------------------------|
E|0------------------------------|0------------------------------|
gain Be......cause I
Bm
e|2------ ------- ------- -------|2------ ------- 2------ -------|
B|3------------------------------|3---------------3--------------|
G|4------------------------------|4---------------4--------------|
D|4------------------------------|4---------------4--------------|
A|2------------------------------|2---------------2--------------|
E|-------------------------------|-------------------------------|
know she'll al....................ways
Am
e|0------ ------- ------- -------|------- ------- 0------ -------|
B|1------------------------------|----------------1--------------|
G|2------------------------------|----------------2--------------|
D|2------------------------------|----------------2--------------|
A|0------------------------------|----------------0--------------|
E|-------------------------------|-------------------------------|
be the
C
e|0------ ------- ------- -------|0------ ------- 0------ -------|
B|1------------------------------|1---------------1--------------|
G|0------------------------------|0---------------0--------------|
D|2------------------------------|2---------------2--------------|
A|3------------------------------|3---------------3--------------|
E|-------------------------------|-------------------------------|
on......................ly girl for
Em
e|0------ 0------ ----0-- -------|0------ ------- ------- -------|
B|0-------0-----------0----------|0------------------------------|
G|0-------0-----------0----------|0------------------------------|
D|2-------2-----------2----------|2------------------------------|
A|2-------2-----------2----------|2------------------------------|
E|0-------0-----------0----------|0------------------------------|
me But 'till she's here
B A
e|------- ------- ------- -------|------- ------- ------- -------|
B|-------------------------------|-------------------------------|
G|-------------------------------|-------------------------------|
D|--------9-------7--------------|--------7-------7---5----------|
A|--------9-------7---9----------|--------7-------7---5----------|
E|7------------------------------|-------------------------------|
please don't come near, just stay a.......way.
G Em
e|------- ------- ------- -------|------- ------- ------- -------|
B|-------------------------------|-------------------------------|
G|-------------------------------|-------------------------------|
D|--------5-------5---3-------2--|---2--------0------------------|
A|--------5-------5---3-------2--|---2--------0-------2---0------|
E|-------------------------------|----------------------------2-/|
I'll let you know
B A
e|------- ------- ------- -------|------- ------- ------- -------|
B|-------------------------------|-------------------------------|
G|-------------------------------|-------------------------------|
D|--------9-------7--------------|--------7-----------4----------|
A|--------9-------7---9----------|--------7-----------5----------|
E|7------------------------------|-------------------------------|
when she's come home. Un......til that
G
e|------- ------- ------- -------|------- ------- ------- -------|
B|-------------------------------|-------------------------------|
G|-------------------------------|-------------------------------|
D|5-------5-----------5-------5--|5------------------------------|
A|5-------5-----------5-------5--|5------------------------------|
E|3-------3-----------3-------3--|3------------------------------|
day, Don't come a.....round,
Em A
e|7------ ------- ------- -------|-9----- ------- ------- -------|
B|8------------------------------|10-----------------------------|
G|9------------------------------|-9-----------------------------|
D|9------------------------------|-7-----------------------------|
A|7------------------------------|-------------------------------|
E|-------------------------------|-------------------------------|
leave me a.........lone, don't bother me.
Em A
e|7------ ------- ------- -------|-9----- ------- ------- -------|
B|8------------------------------|10-----------------------------|
G|9------------------------------|-9-----------------------------|
D|9------------------------------|-7-----------------------------|
A|7------------------------------|-------------------------------|
E|-------------------------------|-------------------------------|
don't bother me.
Em A Em
e|7------ ------- ------- ----9--|------- ------- ------- ----7--|
B|8--------------------------10--|----------------------------8--|
G|9---------------------------9--|----------------------------9--|
D|9---------------------------7--|----------------------------9--|
A|7------------------------------|----------------------------7--|
E|-------------------------------|-------------------------------|
don't bother me.
A Em
e|------- ------- ------- -----9-|------- ------- ------- ----7--|
B|----------------------------10-|----------------------------8--|
G|-----------------------------9-|----------------------------9--|
D|-----------------------------7-|----------------------------9--|
A|-------------------------------|----------------------------7--|
E|-------------------------------|-------------------------------|
don't bother me.
A Em
e|------- ------- ------- -----9-|------- ------- ------- ----7--|
B|----------------------------10-|----------------------------8--|
G|-----------------------------9-|----------------------------9--|
D|-----------------------------7-|----------------------------9--|
A|-------------------------------|----------------------------7--|
E|-------------------------------|-------------------------------|
don't bother me.
.............................Fade..............................







B Bend
R Release
/ slide up
\ slide down
H hammer-on
P pull-off
~ vibrato
+ harmonic
x Mute note
. - play note like a dot in standard notation
^ - ties two notes together
(. Pause

pjvill

Submitted by pjvill at Sat 03 Dec, 2005 12:12 pm

Author: ?
Composer: ?
Publisher: ?
Language: English

Reactions

CommonCrawl [Bot]

Follow Muzikum