The Beatles

The Beatles
Dig A Pony (Guitar tab)

------------------------------------------------------------------

THE BEATLES - DIG A PONY (Lennon/McCartney) This tab is based on
the LET IT BE NAKED album. Released 18th November
2003.

------------------------------------------------------------------

Tabbed by:PJVillanueva





I hi hi hi hi dig a pony
Well you can celebrate anything you want
Yes, you can celebrate anything you want
Ooooh.
I hi hi hi hi do a road hog
Well you can penetrate any place you go
Yes you can penetrate any place you go
I told you, all I want is you.
Ev'rything has got to be just like you want it to
Because

I hi hi hi hi pick a moon dog
Well you can radiate ev'rything you are
Yes you can radiate ev'rything you are
Ooh.
I hi hi hi hi roll a stoney
Well you can imitate ev'ryone you know
Yes you can imitate ev'ryone you know
I told you, all I want is you.
Ev'rything has got to bejust like you want it to
Because

I hi hi hi hi feel the wind blow
Well you can indicate ev'rything you see
Yes you can indicate ev'rything you see
Ooooh now
I hi hi hi hi Laurie Laurie
Well you can syndicate any boat you row
Yes you can syndicate any boat you row
I told you, all I want is you.
Ev'rything has got to bejust like you want it to
Because





9/8 Time



G D
e|3-------- --------- ---------|2-------- --------- ---------|
B|3----------------------------|3----------------------------|
G|0----------------------------|2----------------------------|
D|0----------------------------|0----------------------------|
A|2----------------------------|-----------------------------|
E|3----------------------------|-----------------------------|

e|--------- --------- ---------|--------- --------- ---------|
B|-----------------------------|-----------------------------|
G|-----------------------------|--------------------7--------|
D|--------------------5--------|----------7-----9---------9--|
A|----------5-----7---------7--|5--/--9----------------------|
E|3--/--7----------------------|-----------------------------|




A
e|0-----0-- 0-----0-- ---------|0-----0-- 0-----0-- 0--------|
B|2-----2---2-----2------------|2-----2---2-----2---2--------|
G|2-----2---2-----2------------|2-----2---2-----2---2--------|
D|2-----2---2-----2------------|2-----2---2-----2---2--------|
A|0-----0---0-----0------------|0-----0---0-----0---0--------|
E|-----------------------------|-----------------------------|

e|--------- --------- ---------|--------- --------- ---------|
B|-----------------------------|-----------------------------|
G|-----------------------------|-----------------------------|
D|7-----7---7------------------|------7----------------------|
A|7-----7---7---------------7--|8-H-9-----9-----7---------0--|
E|5-----5---5-----8---9--------|---------------------8-H-9---|




G D
e|3-------- --------- ---------|2-------- --------- ---------|
B|3----------------------------|3----------------------------|
G|0----------------------------|2----------------------------|
D|0----------------------------|0----------------------------|
A|2----------------------------|-----------------------------|
E|3----------------------------|-----------------------------|

e|--------- --------- ---------|--------- --------- ---------|
B|-----------------------------|-----------------------------|
G|-----------------------------|--------------------7--------|
D|--------------------5--------|----------7-----9---------9--|
A|----------5-----7---------7--|5--/--9----------------------|
E|3--/--7----------------------|-----------------------------|




A
e|0-----0-- 0-------- 0--------|0--0--0-- 0-------- 0--------|
B|2-----2---2---------2--------|2--2--2---2---------2--------|
G|2-----2---2---------2--------|2--2--2---2---------2--------|
D|2-----2---2---------2--------|2--2--2---2---------2--------|
A|0-----0---0---------0--------|0--0--0---0---------0--------|
E|-----------------------------|-----------------------------|

e|--------- --------- ---------|--------- --------- ---------|
B|-----------------------------|-----------------------------|
G|-----------------------------|-----------------------------|
D|7-----7---7------------------|------7----------------------|
A|7-----7---7---------------7--|8-H-9-----9-----7---------7--|
E|5-----5---5-----8---9--------|---------------------8-H-9---|





A6sus4 A A6sus4
e|--------- ------5-- ---------|--------- ------5-- ---------|
B|2---------2-----2---3--------|2---------------2---2-H-3----|
G|2---------2-----2---2--------|2---------------2---2--------|
D|2---------2-----2---4--------|2---------------2---2-H-3----|
A|0---------0-----0---0--------|0---------------0---0--------|
E|-----------------------------|-----------------------------|
I hi hi hi





A A6sus4 A
e|--------- ------5-- ---------|--------- ------5-- ------5--|
B|2---------2-----2---3--------|2---------2-----2---2-----2--|
G|2---------2-----2---2--------|2---------2-----2---2-----2--|
D|2---------2-----2---4--------|2---------2-----2---2-----2--|
A|0---------0-----0---0--------|0---------0-----0---0-----0--|
E|-----------------------------|-----------------------------|
hi dig a pony




F#m
e|2-------- 2-----2-- 2-----2--|2-------- 2-----2-- 2-----2--|
B|2---------2-----2---2-----2--|2---------2-----2---2-----2--|
G|2---------2-----2---2-----2--|2---------2-----2---2-----2--|
D|4---------4-----4---4-----4--|4---------4-----4---4-----4--|
A|4---------4-----4---4-----4--|4---------4-----4---4-----4--|
E|2---------2-----2---2-----2--|2---------2-----2---2-----2--|
Well you can
e|--------- --------- ---------|--------- --------- ---------|
B|-----------------------------|-----------------------------|
G|-----------------------------|-----------------------------|
D|--------------------------2--|4---------2------------------|
A|-----------------------------|--------------------4--------|
E|-----------------------------|-----------------------------|

e|--------- --------- ------0-H|2-----0-H 2-----0-H 2--------|
B|--------------------------0-H|2-----0-H-2-----0-H-2--------|
G|--------------------------1-H|2-----1-H-2-----1-H-2--------|
D|-----------------------------|-----------------------------|
A|-----------------------------|-----------------------------|
E|-----------------------------|-----------------------------|





Bm G7
e|2-----2-- ------2-- ------2--|3-----3-- ------3-- ------3--|
B|3-----3---------3---------3--|6-----6---------6---------6--|
G|4-----4---------4---------4--|4-----4---------4---------4--|
D|4-----4---------4---------4--|3-----3---------3---------3--|
A|2-----2---------2---------2--|5-----5---------5---------5--|
E|-----------------------------|3-----3---------3---------3--|
celebrate anything you want
e|--------- --------- ---------|--------- 3-------- 5-/-7----|
B|-----------------------------|-----------------------------|
G|-----------------------------|----------4---------5-/-7----|
D|-----------------------------|-----------------------------|
A|-----------------------------|-----------------------------|
E|-----------------------------|-----------------------------|





Bm
e|--------- 3-----3-- 3-----2--|------2-- ------2-- ---------|
B|----------6-----6---6-----3--|------3---------3------------|
G|----------4-----4---4-----4--|------4---------4------------|
D|----------3-----3---3-----4--|------4---------4------------|
A|----------5-----5---5-----2--|------2---------2------------|
E|----------3-----3---3--------|-----------------------------|
Yes, you can celebrate any..
e|5-------- 3-------- ---------|2-------- --------- ---------|
B|-----------------------------|-----------------------------|
G|5---------4------------------|4----------------------------|
D|-----------------------------|-----------------------------|
A|-----------------------------|-----------------------------|
E|-----------------------------|-----------------------------|





G7 E
e|3-----3-- ------3-- ------0--|0-------- 0-----0-- ------0--|
B|6-----6---------6---------0--|0---------0-----0---------0--|
G|4-----4---------4---------1--|1---------1-----1---------1--|
D|3-----3---------3---------2--|2---------2-----2---------2--|
A|5-----5---------5---------2--|2---------2-----2---------1--|
E|3-----3---------3---------0--|0---------0-----0---------0--|
thing you want
e|--------- --------- ---------|-0------- -2------- -4-------|
B|-----------------------------|-----------------------------|
G|--------------------------0-H|1---------2---------4--------|
D|-----------------------------|-----------------------------|
A|-----------------------------|-----------------------------|
E|-----------------------------|-----------------------------|





e|0-------- 0-----0-- 0--------|
B|0---------0-----0---0--------|
G|1---------1-----1---1--------|
D|2---------2-----2---2--------|
A|2---------2-----2---2--------|
E|0---------0-----0---0--------|
Ooooh
e|-5------- -7------- -8-------|
B|-----------------------------|
G|6---------7---------8--------|
D|-----------------------------|
A|-----------------------------|
E|-----------------------------|




A A6sus4 A A6sus4
e|--------- ------5-- ---------|--------- ------5-- ---------|
B|2---------2-----2---3--------|2---------------2---3--------|
G|2---------2-----2---2--------|2---------------2---2--------|
D|2---------2-----2---4--------|2---------------2---4--------|
A|0---------0-----0---0--------|0---------------0---0--------|
E|-----------------------------|-----------------------------|
I hi hi hi
e|9-------- --------- ---------|--------- --------- ---------|
B|-----------------------------|-----------------------------|
G|9----------------------------|-----------------------------|
D|-----------------------------|-----------------------------|
A|-----------------------------|-----------------------------|
E|-----------------------------|-----------------------------|






A A6sus4 A F#m
e|--------- ------5-- ---------|--------- ------5-- ------2--|
B|2---------2-----2---3-----3--|2---------2-----2---------2--|
G|2---------2-----2---2-----2--|2---------2-----2---------2--|
D|2---------2-----2---4-----4--|2---------2-----2---------4--|
A|0---------0-----0---0-----0--|0---------0-----0---------4--|
E|-----------------------------|--------------------------2--|
hi do a
e|--------- --------- ---------|--------- --------- ---------|
B|-----------------------------|-----------------------------|
G|-----------------------------|4---------2---------4--------|
D|-----------------------------|-----------------------------|
A|-----------------------------|-----------------------------|
E|-----------------------------|-----------------------------|







e|--------- 2-------- 2-----2--|2-------- 2-----2-- 2-----2--|
B|----------2---------2-----2--|2---------2-----2---2-----2--|
G|----------2---------2-----2--|2---------2-----2---2-----2--|
D|----------4---------4-----4--|4---------4-----4---4-----4--|
A|----------4---------4-----4--|4---------4-----4---4-----4--|
E|----------2---------2-----2--|2---------2-----2---2-----2--|
road hog Well you can
e|--------- --------- ---------|--------- --------- ---------|
B|-----------------------------|-----------------------------|
G|-----------------------------|-----------------------------|
D|4----------------------------|4---------2------------------|
A|-----------------------------|--------------------4--------|
E|-----------------------------|-----------------------------|




Bm G7
e|2-----2-- 2-----2-- ---------|3-----3-- 3-----3-- 3-----3--|
B|3-----3---3-----3------------|6-----6---6-----6---6-----6--|
G|4-----4---4-----4------------|4-----4---4-----4---4-----4--|
D|4-----4---4-----4------------|3-----3---3-----3---3-----3--|
A|2-----2---2-----2------------|5-----5---5-----5---5-----5--|
E|-----------------------------|3-----3---3-----3---3-----3--|
penetrate any place you go
e|--------- --------- ---------|--------- ------3-/ 5------5/|
B|-----------------------------|-----------------------------|
G|-----------------------------|----------------4-/-5------5/|
D|-----------------------------|-----------------------------|
A|2----------------------------|-----------------------------|
E|-----------------------------|-----------------------------|




Bm
e|--------- 3-----3-- 3-----2--|------2-- 2-----2-- 2-----2--|
B|----------6-----6---6-----3--|------3---3-----3---3-----3--|
G|----------4-----4---4-----4--|------4---4-----4---4-----4--|
D|----------3-----3---3-----4--|------4---4-----4---4-----4--|
A|----------5-----5---5-----2--|------2---2-----2---2-----2--|
E|----------3-----3---3--------|-----------------------------|
Yes you can penetrate any
e|7-------- 5-------- 3--------|--------- --------- ---------|
B|-----------------------------|-----------------------------|
G|7---------5---------4--------|-----------------------------|
D|-----------------------------|-----------------------------|
A|-----------------------------|-----------------------------|
E|-----------------------------|-----------------------------|




G7 E
e|3-----3-- ------3-- ------0--|0-----0-- 0-----0-- 0-----0--|
B|6-----6---------6---------0--|0-----0---0-----0---0-----0--|
G|4-----4---------4---------1--|1-----1---1-----1---1-----1--|
D|3-----3---------3---------2--|2-----2---2-----2---2-----2--|
A|5-----5---------5---------2--|2-----2---2-----2---2-----1--|
E|3-----3---------3---------0--|0-----0---0-----0---0-----0--|
place you go I
e|--------- --------- ---------|9---\---- 7-------- ------4--|
B|-----------------------------|-----------------------------|
G|--------------------------7/9|----\---7-----------7-\-4----|
D|-----------------------------|-----------------------------|
A|-----------------------------|-----------------------------|
E|-----------------------------|-----------------------------|





e|0-----0-- 0-----0-- 0-----0--|
B|0-----0---0-----0---0-----0--|
G|1-----1---1-----1---1-----1--|
D|2-----2---2-----2---2-----2--|
A|2-----2---2-----2---2-----2--|
E|0-----0---0-----0---0-----0--|
told you so
e|--------- 0-------- ---------|
B|-----------------------------|
G|----------1------------------|
D|-----------------------------|
A|-----------------------------|
E|-----------------------------|





G D
e|3-------- 3-------- 3--------|2-------- 2-----2-- 2--------|
B|3---------3---------3--------|3---------3-----3---3--------|
G|0---------0---------0--------|2---------2-----2---2--------|
D|0---------0---------0--------|0---------0-----0---0--------|
A|2---------2---------2--------|-----------------------------|
E|3---------3---------3--------|-----------------------------|
All I want is
e|--------- --------- ---------|--------- --------- ---------|
B|-----------------------------|-----------------------------|
G|-----------------------------|--------------------7--------|
D|-----------------------------|4---------7------------------|
A|--------------------5--------|-----------------------------|
E|3---------7------------------|-----------------------------|




A5
e|--------- --------- ---------|--------- --------- ---------|
B|-----------------------------|-----------------------------|
G|2-----2---2------------------|------2----------------------|
D|2-----2---2---------------2--|3-H-4-----4-----2------------|
A|0-----0---0-----3---4--------|-------------------3-H-4--0--|
E|-----------------------------|-----------------------------|
A5
e|--------- --------- ---------|--------- --------- ---------|
B|-----------------------------|-----------------------------|
G|-----------------------------|-----------------------------|
D|7-----7---7------------------|------7----------------------|
A|7-----7---7---------------7-H|8-H-9-----9-----7---------0--|
E|5-----5---5-----8-H-9--------|--------------------8-H-9----|
you




G D
e|3-----3-- 3-----3-- 3--------|2-----2-- 2-----2-- 2-----0--|
B|3-----3---3-----3---3--------|3-----3---3-----3---3-----0--|
G|0-----0---0-----0---0--------|2-----2---2-----2---2-----0--|
D|0-----0---0-----0---0--------|0-----0---0-----0---0--------|
A|2-----2---2-----2---2--------|-----------------------------|
E|3-----3---3-----3---3--------|-----------------------------|
Ev'rything has got to be just like you want it
e|--------- --------- ---------|--------- --------- ---------|
B|-----------------------------|-----------------------------|
G|-----------------------------|--------------------7--------|
D|--------------------5--------|----------7-----9---------9--|
A|----------5-----7---------7--|5--/--9----------------------|
E|3--/--7----------------------|-----------------------------|




(.
A
e|0-------- --------- ---------|--------- --------- ---------|
B|2----------------------------|-----------------------------|
G|2----------------------------|-----------------------------|
D|2----------------------------|-----------------------------|
A|0----------------------------|-----------------------------|
E|-----------------------------|-----------------------------|
to
e|--------- --------- ---------|--------- --------- ---------|
B|-----------------------------|-----------------------------|
G|-----------------------------|-----------------------------|
D|7----------------------------|-----------------------------|
A|7----------------------------|-----------------------------|
E|5----------------------------|-----------------------------|



x x x x x x

e|--------- --------- --------- --|--------- --------- ---------|
B|--------------------------------|-----------------------------|
G|--------------------------------|-----------------------------|
D|--------------------------------|-----------------------------|
A|--------------------------------|-----------------------------|
E|--------------------------------|-----------------------------|
Be..............cause



A A6sus4 A A6sus4
e|--------- ------5-- ---------|--------- ------5-- ---------|
B|2---------2-----2---3--------|2---------2-----2---2-H-3----|
G|2---------2-----2---2--------|2---------2-----2---2--------|
D|2---------2-----2---4--------|2---------2-----2---2-H-4----|
A|0---------0-----0---0--------|0---------0-----0---0--------|
E|-----------------------------|-----------------------------|
I hi hi hi




A A6sus4 A
e|--------- ------5-- ---------|--------- ------5-- ------5--|
B|2---------2-----2---3--------|2---------2-----2---2-----2--|
G|2---------2-----2---2--------|2---------2-----2---2-----2--|
D|2---------2-----2---4--------|2---------2-----2---2-----2--|
A|0---------0-----0---0--------|0---------0-----0---0-----0--|
E|-----------------------------|-----------------------------|
hi pick a moon
e|--------- --------- ---------|--------- --------- ---------|
B|2--H--3---------2-H-3--------|2----------------------------|
G|2---------------2------------|2----------------------------|
D|2--H--4---------2-H-4--------|2----------------------------|
A|0---------------0------------|0----------------------------|
E|-----------------------------|-----------------------------|





F#m
e|2-----2-- 2-----2-- 2-----2--|2-------- 2-----2-- 2-----2--|
B|2-----2---2-----2---2-----2--|2---------2-----2---2-----2--|
G|2-----2---2-----2---2-----2--|2---------2-----2---2-----2--|
D|4-----4---4-----4---4-----4--|4---------4-----4---4-----4--|
A|4-----4---4-----4---4-----4--|4---------4-----4---4-----4--|
E|2-----2---2-----2---2-----2--|2---------2-----2---2-----2--|
dog Well you can
e|--------- --------- ---------|--------- --------- ---------|
B|-----------------------------|-----------------------------|
G|-----------------------------|-----------------------------|
D|----------------------------2H4---------2------------------|
A|-----------------------------|--------------------4--------|
E|-----------------------------|-----------------------------|

e|--------- --------- ------0-H|2-----0-H 2-----0-H 2--------|
B|--------------------------0-H|2-----0-H-2-----0-H-2--------|
G|--------------------------1-H|2-----1-H-2-----1-H-2--------|
D|-----------------------------|-----------------------------|
A|-----------------------------|-----------------------------|
E|-----------------------------|-----------------------------|




Bm G7
e|2-----2-- ------2-- ------2--|3-----3-- ------3-- ------3--|
B|3-----3---------3---------3--|6-----6---------6---------6--|
G|4-----4---------4---------4--|4-----4---------4---------4--|
D|4-----4---------4---------4--|3-----3---------3---------3--|
A|2-----2---------2---------2--|5-----5---------5---------5--|
E|-----------------------------|3-----3---------3---------3--|
radiate ev'rything you are
e|--------- --------- ---------|--------- 3-------- 5-------5/
B|-----------------------------|-----------------------------|
G|-----------------------------|----------4---------5-------5/
D|-----------------------------|-----------------------------|
A|2----------------------------|-----------------------------|
E|-----------------------------|-----------------------------|




Bm
e|--------- 3-----3-- 3-----2--|2-----2-- 2-----2-- ---------|
B|----------6-----6---6-----3--|3-----3---3-----3------------|
G|----------4-----4---4-----4--|4-----4---4-----4------------|
D|----------3-----3---3-----4--|4-----4---4-----4------------|
A|----------5-----5---5-----2--|2-----2---2-----2------------|
E|----------3-----3---3--------|-----------------------------|
Yes, You can radiate ev'ry...
e|7-------- 5-------- 3--------|2-------- --------- ---------|
B|-----------------------------|-----------------------------|
G|7---------5---------4--------|4----------------------------|
D|-----------------------------|-----------------------------|
A|-----------------------------|-----------------------------|
E|-----------------------------|-----------------------------|





G7 E
e|3-----3-- ------3-- ------0--|0-----0-- 0-----0-- 0-----0--|
B|6-----6---------6---------0--|0-----0---0-----0---0-----0--|
G|4-----4---------4---------1--|1-----1---1-----1---1-----1--|
D|3-----3---------3---------2--|2-----2---2-----2---2-----2--|
A|5-----5---------5---------2--|2-----2---2-----2---2-----1--|
E|3-----3---------3---------0--|0-----0---0-----0---0-----0--|
thing you are
e|--------- --------- ---------|-0------- -2------- -4-------|
B|-----------------------------|-----------------------------|
G|--------------------------0-H|1---------2---------4--------|
D|-----------------------------|-----------------------------|
A|-----------------------------|-----------------------------|
E|-----------------------------|-----------------------------|






e|0-----0-- ------0-- 0--------|
B|0-----0---------0---0--------|
G|1-----1---------1---1--------|
D|2-----2---------2---2--------|
A|2-----2---------2---2--------|
E|0-----0---------0---0--------|
Ooooh Now
e|-5------- -7------- -8-------|
B|-----------------------------|
G|6---------7---------8--------|
D|-----------------------------|
A|-----------------------------|
E|-----------------------------|





A A6sus4 A A6sus4
e|5-------- 5-----5-- 5--------|5-------- 5-----5-- 5--------|
B|2---------2-----2---3--------|2---------2-----2---2-H-3----|
G|2---------2-----2---2--------|2---------2-----2---2--------|
D|2---------2-----2---4--------|2---------2-----2---2-H-4----|
A|0---------0-----0---0--------|0---------0-----0---0--------|
E|-----------------------------|-----------------------------|
I
e|9-------- --------- ---------|--------- --------- ---------|
B|-----------------------------|-----------------------------|
G|9----------------------------|-----------------------------|
D|-----------------------------|-----------------------------|
A|-----------------------------|-----------------------------|
E|-----------------------------|-----------------------------|





A A6sus4 A F#m
e|5-------- 5-----5-- 5--------|5-------- 5-----5-- 5-----2--|
B|2---------2-----2---3--------|2---------2-----2---2-----2--|
G|2---------2-----2---2--------|2---------2-----2---2-----2--|
D|2---------2-----2---4--------|2---------2-----2---2-----4--|
A|0---------0-----0---0--------|0---------0-----0---0-----4--|
E|-----------------------------|--------------------------2--|
roll a




e|2-----2-- 2-----2-- 2-----2--|2-------- 2-----2-- 2-----2--|
B|2-----2---2-----2---2-----2--|2---------2-----2---2-----2--|
G|2-----2---2-----2---2-----2--|2---------2-----2---2-----2--|
D|4-----4---4-----4---4-----4--|4---------4-----4---4-----4--|
A|4-----4---4-----4---4-----4--|4---------4-----4---4-----4--|
E|2-----2---2-----2---2-----2--|2---------2-----2---2-----2--|
stoney Well you can
e|--------- --------- ---------|--------- --------- ---------|
B|2----------------------------|-----------------------------|
G|2----------------------------|-----------------------------|
D|4---------------------------2H4---------2------------------|
A|4----------------------------|--------------------4--------|
E|-----------------------------|-----------------------------|

e|--------- --------- ------0-H|2-----0-H 2-----0-H 2--------|
B|--------------------------0-H|2-----0-H-2-----0-H-2--------|
G|--------------------------1-H|2-----1-H-2-----1-H-2--------|
D|-----------------------------|-----------------------------|
A|-----------------------------|-----------------------------|
E|-----------------------------|-----------------------------|





Bm G7
e|2-----2-- ------2-- ------2--|3-----3-- ------3-- ------3--|
B|3-----3---------3---------3--|6-----6---------6---------6--|
G|4-----4---------4---------4--|4-----4---------4---------4--|
D|4-----4---------4---------4--|3-----3---------3---------3--|
A|2-----2---------2---------2--|5-----5---------5---------5--|
E|-----------------------------|3-----3---------3---------3--|
imitate ev'ryone you know
e|--------- --------- ---------|------3-- 5-/-7---- 5--------|
B|-----------------------------|-----------------------------|
G|-----------------------------|------4---5-/-7-----5--------|
D|-----------------------------|-----------------------------|
A|2----------------------------|-----------------------------|
E|-----------------------------|-----------------------------|





Bm
e|--------- 3-----3-- 3-----2--|2-----2-- 2-----2-- ---------|
B|----------6-----6---6-----3--|3-----3---3-----3------------|
G|----------4-----4---4-----4--|4-----4---4-----4------------|
D|----------3-----3---3-----4--|4-----4---4-----4------------|
A|----------5-----5---5-----2--|2-----2---2-----2------------|
E|----------3-----3---3--------|-----------------------------|
Yes, you can imitate every....
e|3-------- 5-------- 7--------|2-------- --------- ---------|
B|-----------------------------|-----------------------------|
G|4---------5---------7--------|4----------------------------|
D|-----------------------------|-----------------------------|
A|-----------------------------|-----------------------------|
E|-----------------------------|-----------------------------|





G7 E
e|3-----3-- ------3-- ------0--|0-----0-- 0-----0-- 0-----0--|
B|6-----6---------6---------0--|0-----0---0-----0---0-----0--|
G|4-----4---------4---------1--|1-----1---1-----1---1-----1--|
D|3-----3---------3---------2--|2-----2---2-----2---2-----2--|
A|5-----5---------5---------2--|2-----2---2-----2---2-----1--|
E|3-----3---------3---------0--|0-----0---0-----0---0-----0--|
one you know I
e|--------- --------- ---------|7------\- 5-------- ------5--|
B|-----------------------------|-----------------------------|
G|--------------------------5/7|-------\5-----------------6--|
D|-----------------------------|-----------------------------|
A|-----------------------------|-----------------------------|
E|-----------------------------|-----------------------------|






e|0-----0-- ------0-- 0--------|
B|0-----0---------0---0--------|
G|1-----1---------1---1--------|
D|2-----2---------2---2--------|
A|2-----2---------2---2--------|
E|0-----0---------0---0--------|
told you so
e|--------- 4-------- ---------|
B|-----------------------------|
G|----------4------------------|
D|-----------------------------|
A|-----------------------------|
E|-----------------------------|





G D
e|3-------- 3-------- 3--------|2-------- 2-----2-- 2--------|
B|3---------3---------3--------|3---------3-----3---3--------|
G|0---------0---------0--------|2---------2-----2---2--------|
D|0---------0---------0--------|0---------0-----0---0--------|
A|2---------2---------2--------|-----------------------------|
E|3---------3---------3--------|-----------------------------|
All I want is
e|--------- --------- ---------|--------- --------- ---------|
B|-----------------------------|-----------------------------|
G|-----------------------------|--------------------7--------|
D|-----------------------------|4---------7------------------|
A|--------------------5--------|-----------------------------|
E|3---------7------------------|-----------------------------|






A5
e|--------- --------- ---------|--------- --------- ---------|
B|-----------------------------|-----------------------------|
G|2-----2---2------------------|------2----------------------|
D|2-----2---2---------------2--|3-H-4-----4-----2------------|
A|0-----0---0-----3---4--------|-------------------3-H-4--0--|
E|-----------------------------|-----------------------------|
A5
e|--------- --------- ---------|--------- --------- ---------|
B|-----------------------------|-----------------------------|
G|-----------------------------|-----------------------------|
D|7-----7---7------------------|------7----------------------|
A|7-----7---7---------------7-H|8-H-9-----9-----7---------7--|
E|5-----5---5-----8-H-9--------|--------------------8-H-9----|
you




G D
e|3-----3-- 3-----3-- 3--------|2-----2-- 2-----2-- 2-----0--|
B|3-----3---3-----3---3--------|3-----3---3-----3---3-----0--|
G|0-----0---0-----0---0--------|2-----2---2-----2---2-----0--|
D|0-----0---0-----0---0--------|0-----0---0-----0---0--------|
A|2-----2---2-----2---2--------|-----------------------------|
E|3-----3---3-----3---3--------|-----------------------------|
Ev'rything has got to be just like you want it
e|--------- --------- ---------|--------- --------- ---------|
B|-----------------------------|-----------------------------|
G|-----------------------------|--------------------7--------|
D|--------------------5--------|----------7-----9---------9--|
A|----------5-----7---------7--|5--/--9----------------------|
E|3--/--7----------------------|-----------------------------|




(.
A
e|0-------- --------- ---------|--------- --------- ---------|
B|2----------------------------|-----------------------------|
G|2----------------------------|-----------------------------|
D|2----------------------------|-----------------------------|
A|0----------------------------|-----------------------------|
E|-----------------------------|-----------------------------|
to
e|--------- --------- ---------|--------- --------- ---------|
B|-----------------------------|-----------------------------|
G|-----------------------------|-----------------------------|
D|7----------------------------|-----------------------------|
A|7----------------------------|-----------------------------|
E|5----------------------------|-----------------------------|




x x x x x x

e|--------- --------- --------- --|--------- --------- ---------|
B|--------------------------------|-----------------------------|
G|--------------------------------|-----------------------------|
D|--------------------------------|-----------------------------|
A|--------------------------------|-----------------------------|
E|--------------------------------|-----------------------------|
Be..............cause




Solo

A A6sus4 A A6sus4
e|5-------- 5-----5-- 5--------|5-------- 5-----5-- 5--------|
B|2---------2-----2---2-H-3----|2---------2-----2---2-H-3----|
G|2---------2-----2---2--------|2---------2-----2---2--------|
D|2---------2-----2---2-H-4----|2---------2-----2---2-H-4----|
A|0---------0-----0---0--------|0---------0-----0---0--------|
E|-----------------------------|-----------------------------|

e|--------- --------- ---------|--------- --------- ---------|
B|-----------------------------|10-----------------B12R10----|
G|9------------------B11R9-----|--------------------------11-|
D|--------------------------11-|-----------------------------|
A|-----------------------------|-----------------------------|
E|-----------------------------|-----------------------------|




A A6sus4
e|5-------- 5-----5-- 5-----5--|5-------- 5-----5-- 5--------|
B|2---------2-----2---2-H-3-2--|2---------5-----2---2-H-3----|
G|2---------2-----2---2-----2--|2---------2-----2---2--------|
D|2---------2-----2---2-H-4-2--|2---------2-----2---2-H-4----|
A|0---------0-----0---0-----0--|0---------0-----0---0--------|
E|-----------------------------|-----------------------------|

e|--------- --------- ---------|--------- ------14- ---------|
B|-----12-B-14-R-12------------|-----12-B-14--------12P10----|
G|-----------------------------|-----------------------------|
D|-----------------------------|-----------------------------|
A|-----------------------------|-----------------------------|
E|-----------------------------|-----------------------------|




F#m
e|2-------- --------- ---------|--------- --------- ---------|
B|2----------------------------|-----------------------------|
G|2---------------2-2H4--P--2--|----------2---------2--------|
D|4---------------2-2H4--P--2--|4---------4---------4--------|
A|4----------------------------|4---------4---------4--------|
E|2----------------------------|2---------2---------2--------|

e|--------- --------- ---------|--------- --------- ---------|
B|-----------------------------|----------10--------12-------|
G|11---------------------------|-----------------------------|
D|-----------------------------|-----------------------------|
A|-----------------------------|-----------------------------|
E|-----------------------------|-----------------------------|




Bm G7
e|--------- --------- ---------|--------- --------- ---------|
B|--------------------3--------|-----------------------------|
G|-----------------------------|--------------------4--------|
D|----------4------------------|----------3------------------|
A|2----------------------------|-----------------------------|
E|-----------------------------|3----------------------------|

e|--------- --------- ---------|--------- --------- ---------|
B|12B15---------------15-------|15---R-----------------------|
G|-----------------------------|----------10-----------------|
D|-----------------------------|-----------------------------|
A|-----------------------------|-----------------------------|
E|-----------------------------|-----------------------------|




Bm
e|3-------- --------- ---------|--------- --------- ---------|
B|----------6------------------|--------------------3--------|
G|--------------------4--------|----------4------------------|
D|-----------------------------|4----------------------------|
A|-----------------------------|-----------------------------|
E|-----------------------------|-----------------------------|

e|--------- --------- ---------|--------- --------- ---------|
B|-----------------------------|12B15---------------15-------|
G|-----12-B-14-----R--10-------|-----------------------------|
D|-----------------------------|-----------------------------|
A|-----------------------------|-----------------------------|
E|-----------------------------|-----------------------------|




G7 E
e|--------- --------- 3--------|--------- --------- 0--------|
B|--------------------6--------|--------------------0--------|
G|----------4------------------|----------1------------------|
D|-----------------------------|2----------------------------|
A|5----------------------------|-----------------------------|
E|-----------------------------|-----------------------------|

e|--------- --------- ---------|------12- --------- 14-------|
B|15----R----------------------|-----------------------------|
G|----------12--------------12/|13--------13-----14-------14-/
D|-----------------------------|-----------------------------|
A|-----------------------------|-----------------------------|
E|-----------------------------|-----------------------------|





e|0-------- 0-------- 0--------|
B|0---------0---------0--------|
G|1---------1---------1--------|
D|2---------2---------2--------|
A|-----------------------------|
E|-----------------------------|
Ooooooooooh now
e|------16- ------14- ------12-|
B|-----------------------------|
G|16--------14--------13-------|
D|-----------------------------|
A|-----------------------------|
E|-----------------------------|




A A6sus A A6sus4
e|--------- ------5-- ---------|--------- 5-----5-- ---------|
B|2---------------2---2-H-3----|2---------2-----2---2-H-3----|
G|2---------------2---2--------|2---------2-----2---2--------|
D|2---------------2---2-H-4----|2---------2-----2---2-H-3----|
A|0---------------0---0--------|0---------0-----0---0--------|
E|-----------------------------|-----------------------------|
I hi hi hi




A A6sus4 A F#m
e|--------- 5-----5-- ---------|5-------- 5-----5-- ------2--|
B|2---------2-----2---2-H-3----|2---------2-----2---------2--|
G|2---------2-----2---2--------|2---------2-----2---------2--|
D|2---------2-----2---2-H-4----|2---------2-----2---------4--|
A|0---------0-----0---0--------|0---------0-----0---------4--|
E|-----------------------------|--------------------------2--|
hi feel the
e|--------- --------- ---------|--------- --------- ---------|
B|-----------------------------|-----------------------------|
G|-----------------------------|4/6-------2------------------|
D|-----------------------------|-----------------------------|
A|-----------------------------|-----------------------------|
E|-----------------------------|-----------------------------|





e|2-------- 2-------- ------2--|2-------- 2-----2-- 2-----2--|
B|2---------2---------------2--|2---------2-----2---2-----2--|
G|2---------2---------------2--|2---------2-----2---2-----2--|
D|4---------4---------------4--|4---------4-----4---4-----4--|
A|4---------4---------------4--|4---------4-----4---4-----4--|
E|2---------2---------------2--|2---------2-----2---2-----2--|
wind blow Well you can
e|--------- --------- ---------|--------- --------- ---------|
B|-----------------------------|-----------------------------|
G|-----------------------------|-----------------------------|
D|4-------------------------2-H|4---------2------------------|
A|-----------------------------|--------------------4--------|
E|-----------------------------|-----------------------------|

e|--------- --------- ------0-H|2-----0-H 2-----0-H 2--------|
B|--------------------------0-H|2-----0-H-2-----0-H-2--------|
G|--------------------------1-H|2-----1-H-2-----1-H-2--------|
D|-----------------------------|-----------------------------|
A|-----------------------------|-----------------------------|
E|-----------------------------|-----------------------------|





Bm G7
e|2-----2-- 2-----2-- 2--------|3-------- 3-----3-- ------3--|
B|3-----3---3-----3---3--------|6---------6-----6---------6--|
G|4-----4---4-----4---4--------|4---------4-----4---------4--|
D|4-----4---4-----4---4--------|3---------3-----3---------3--|
A|2-----2---2-----2---2--------|5---------5-----5---------5--|
E|-----------------------------|3---------3-----3---------3--|
indicate ev'rything you see
e|--------- --------- ---------|--------- 3-------- 5--------|
B|-----------------------------|-----------------------------|
G|-----------------------------|------4---------5---------5-/|
D|-----------------------------|-----------------------------|
A|2----------------------------|-----------------------------|
E|-----------------------------|-----------------------------|





Bm
e|--------- 3-----3-- 3-----3--|2-------- 2-----2-- ------2--|
B|----------6-----6---6-----6--|3---------3-----3---------3--|
G|----------4-----4---4-----4--|4---------4-----4---------4--|
D|----------3-----3---3-----3--|4---------4-----4---------4--|
A|----------5-----5---5-----5--|2---------2-----2---------2--|
E|----------3-----3---3-----3--|-----------------------------|
Yes, you can indicate any..
e|------7-\ ------5-\ ------3-\|2-------- --------- ---------|
B|-----------------------------|-----------------------------|
G|7-------\-5-------\-4--------|-----------------------------|
D|-----------------------------|-----------------------------|
A|-----------------------------|-----------------------------|
E|-----------------------------|-----------------------------|





G7 E
e|3-----3-- 3-----3-- 3-----0--|0-------- 0-----0-- ------0--|
B|6-----6---6-----6---6-----0--|0---------0-----0---------0--|
G|4-----4---4-----4---4-----1--|1---------1-----1---------1--|
D|3-----3---3-----3---3-----2--|2---------2-----2---------2--|
A|5-----5---5-----5---5-----2--|2---------2-----2---------1--|
E|3-----3---3-----3---3-----0--|0---------0-----0---------0--|
thing you see
e|--------- --------- ---------|0-----0-- ---2----- 4-----4--|
B|-----------------------------|-----------------------------|
G|--------------------------1--|---1------2-----2------4-----|
D|-----------------------------|-----------------------------|
A|-----------------------------|-----------------------------|
E|-----------------------------|-----------------------------|





e|0-----0-- 0-----0-- 0--------|
B|0-----0---0-----0---0--------|
G|1-----1---1-----1---1--------|
D|2-----2---2-----2---2--------|
A|2-----2---2-----2---2--------|
E|0-----0---0-----0---0--------|
Ooooh now
e|---5----- 7-----7-- ---8-----|
B|-----------------------------|
G|6-----6------7------8-----8--|
D|-----------------------------|
A|-----------------------------|
E|-----------------------------|




A A6sus4 A A6sus4
e|--------- ------5-- ---------|--------- ------5-- ---------|
B|2---------------2---3--------|2---------2-----2---3--------|
G|2---------------2---2--------|2---------2-----2---2--------|
D|2---------------2---4--------|2---------2-----2---4--------|
A|0---------------0---0--------|0---------0-----0---0--------|
E|-----------------------------|-----------------------------|
I hi hi hi
e|9-------- --------- ---------|--------- --------- ------5--|
B|-----------------------------|--------------------------0-H|
G|9----------------------------|--------------------------0-H|
D|-----------------------------|--------------------------0-H|
A|-----------------------------|-----------------------------|
E|-----------------------------|-----------------------------|





A A6sus4 A F#m
e|--------- ------5-- ---------|5-------- 5-----5-- 5-----2--|
B|2---------2-----2---2-H-3----|2---------2-----2---2-----2--|
G|2---------2-----2---2--------|2---------2-----2---2-----2--|
D|2---------2-----2---2-H-3----|2---------2-----2---2-----4--|
A|0---------0-----0---0--------|0---------0-----0---0-----4--|
E|-----------------------------|--------------------------2--|
hi Laurie e|5-------- 5-------- 5--------|5-------- --------- ---------|
B|2---------2-H-3-----2-H-3----|2----------------------------|
G|2---------2---------2--------|2----------------------------|
D|2---------2-H-4-----2-H-4----|2----------------------------|
A|0---------0---------0--------|0----------------------------|
E|-----------------------------|-----------------------------|






e|2-------- 2-------- 2-----2--|2-------- 2-----2-- 2-----2--|
B|2---------2---------2-----2--|2---------2-----2---2-----2--|
G|2---------2---------2-----2--|2---------2-----2---2-----2--|
D|4---------4---------4-----4--|4---------4-----4---4-----4--|
A|4---------4---------4-----4--|4---------4-----4---4-----4--|
E|2---------2---------2-----2--|2---------2-----2---2-----2--|
Laurie Well you can
e|--------- --------- ---------|--------- --------- ---------|
B|-----------------------------|-----------------------------|
G|-----------------------------|2H4-------2------------------|
D|-----------------------------|--------------------4--------|
A|-----------------------------|-----------------------------|
E|-----------------------------|-----------------------------|





Bm G7
e|2-----2-- 2-----2-- 2--------|3-----3-- 3-------- 3-----3--|
B|3-----3---3-----3---3--------|6-----6---6---------6-----6--|
G|4-----4---4-----4---4--------|4-----4---4---------4-----4--|
D|4-----4---4-----4---4--------|3-----3---3---------3-----3--|
A|2-----2---2-----2---2--------|5-----5---5---------5-----5--|
E|-----------------------------|3-----3---3---------3-----3--|
syndicate any boat you row
e|--------- --------- ---------|------3-/ 5-------- 5--------|
B|-----------------------------|-----------------------------|
G|-----------------------------|------4-/-5---------5--------|
D|-----------------------------|-----------------------------|
A|2----------------------------|-----------------------------|
E|-----------------------------|-----------------------------|





Bm
e|3-------- 3-----3-- 3-----2--|------2-- 2-----2-- 2-----2--|
B|6---------6-----6---6-----3--|------3---3-----3---3-----3--|
G|4---------4-----4---4-----4--|------4---4-----4---4-----4--|
D|3---------3-----3---3-----4--|------4---4-----4---4-----4--|
A|5---------5-----5---5-----2--|------2---2-----2---2-----2--|
E|3---------3-----3---3--------|-----------------------------|
Yes, you can syndicate any
e|3-------- 5-------- 7--------|2-------- --------- ---------|
B|-----------------------------|-----------------------------|
G|4---------5---------7--------|4----------------------------|
D|-----------------------------|-----------------------------|
A|-----------------------------|-----------------------------|
E|-----------------------------|-----------------------------|





G7 E
e|3-----3-- ------3-- ------0--|0-----0-- 0-----0-- 0-----0--|
B|6-----6---------6---------0--|0-----0---0-----0---0-----0--|
G|4-----4---------4---------1--|1-----1---1-----1---1-----1--|
D|3-----3---------3---------2--|2-----2---2-----2---2-----2--|
A|5-----5---------5---------2--|2-----2---2-----2---2-----1--|
E|3-----3---------3---------0--|0-----0---0-----0---0-----0--|
boat you row I
e|--------- --------- ---------|9-------- 7-------- ------0--|
B|-----------------------------|--------------------------0--|
G|------------------------7/9--|---\--7----------------------|
D|-----------------------------|-----------------------------|
A|-----------------------------|-----------------------------|
E|-----------------------------|-----------------------------|





e|0-----0-- 0-----0-- 0-----0--|
B|0-----0---0-----0---0-----0--|
G|1-----1---1-----1---1-----1--|
D|2-----2---2-----2---2-----2--|
A|2-----2---2-----2---2-----2--|
E|0-----0---0-----0---0-----0--|
told you so
e|--------- --------- ---------|
B|-----------------------------|
G|14------\-13-----------------|
D|-----------------------------|
A|-----------------------------|
E|-----------------------------|





G D
e|3-------- 3-------- 3--------|2-------- 2-------- 2--------|
B|3---------3---------3--------|3---------3---------3--------|
G|0---------0---------0--------|2---------2---------2--------|
D|0---------0---------0--------|0---------0---------0--------|
A|2---------2---------2--------|-----------------------------|
E|3---------3---------3--------|-----------------------------|
All I want is
e|--------- --------- ---------|--------- --------- ---------|
B|-----------------------------|-----------------------------|
G|-----------------------------|--------------------7--------|
D|-----------------------------|4---------7------------------|
A|--------------------5--------|-----------------------------|
E|3---------7------------------|-----------------------------|





A5
e|--------- --------- ---------|--------- --------- ---------|
B|-----------------------------|-----------------------------|
G|2-----2---2---------------2--|2-----2---2-----2------------|
D|2-----2---2---------------2--|3-H-4-----4-----2---2--------|
A|0-----0---0-----3---4--------|--------------------0--------|
E|-----------------------------|-----------------------------|
A5
e|--------- --------- ---------|--------- --------- ---------|
B|-----------------------------|-----------------------------|
G|-----------------------------|-----------------------------|
D|7-----7---7------------------|------7----------------------|
A|7-----7---7---------------7-H|8-H-9-----9-----7---------0--|
E|5-----5---5-----8-H-9--------|--------------------8-H-9----|
you




G D
e|3-------- 3-------- 3--------|2-------- 2-------- 2-----2--|
B|3---------3---------3--------|3---------3---------3-----3--|
G|0---------0---------0--------|2---------2---------2-----2--|
D|0---------0---------0--------|0---------0---------0-----0--|
A|2---------2---------2--------|-----------------------------|
E|3---------3---------3--------|-----------------------------|
Ev'rything has got to be just like you want it
e|--------- --------- ---------|--------- --------- ---------|
B|-----------------------------|-----------------------------|
G|-----------------------------|--------------------7--------|
D|--------------------5--------|----------7-----9---------9--|
A|----------5-----7---------7--|5--/--9----------------------|
E|3--/--7----------------------|-----------------------------|



(.
A
e|0-------- --------- ---------|--------- --------- ---------|
B|2----------------------------|-----------------------------|
G|2----------------------------|-----------------------------|
D|2----------------------------|-----------------------------|
A|0----------------------------|-----------------------------|
E|-----------------------------|-----------------------------|
to
e|--------- --------- ---------|--------- --------- ---------|
B|-----------------------------|-----------------------------|
G|-----------------------------|-----------------------------|
D|7----------------------------|-----------------------------|
A|7----------------------------|-----------------------------|
E|5----------------------------|-----------------------------|



x x x x x x

e|--------- --------- --------- --|--------- --------- ---------|
B|--------------------------------|-----------------------------|
G|--------------------------------|-----------------------------|
D|--------------------------------|-----------------------------|
A|--------------------------------|-----------------------------|
E|--------------------------------|-----------------------------|
Be..............cause



G D
e|3-------- --------- ---------|2-------- --------- ---------|
B|3----------------------------|3----------------------------|
G|0----------------------------|2----------------------------|
D|0----------------------------|0----------------------------|
A|2----------------------------|-----------------------------|
E|3----------------------------|-----------------------------|

e|--------- --------- ---------|--------- --------- ---------|
B|-----------------------------|-----------------------------|
G|-----------------------------|--------------------7--------|
D|--------------------5--------|----------7-----9---------9--|
A|----------5-----7---------7--|5--/--9----------------------|
E|3--/--7----------------------|-----------------------------|



A
e|0-----0-- 0-----0-- ---------|0-----0-- 0-----0-- 0--0-----|
B|2-----2---2-----2------------|2-----2---2-----2---2--2-----|
G|2-----2---2-----2------------|2-----2---2-----2---2--2-----|
D|2-----2---2-----2------------|2-----2---2-----2---2--2-----|
A|0-----0---0-----0------------|0-----0---0-----0---0--0-----|
E|-----------------------------|-----------------------------|
A5
e|--------- --------- ---------|--------- --------- ---------|
B|-----------------------------|-----------------------------|
G|-----------------------------|-----------------------------|
D|7-----7---7------------------|------7----------------------|
A|7-----7---7---------------7-H|8-H-9-----9-----7---------0--|
E|5-----5---5-----8-H-9--------|--------------------8-H-9----|





G D
e|3-------- --------- ---------|2-------- --------- ---------|
B|3----------------------------|3----------------------------|
G|0----------------------------|2----------------------------|
D|0----------------------------|0----------------------------|
A|2----------------------------|-----------------------------|
E|3----------------------------|-----------------------------|

e|--------- --------- ---------|--------- --------- ---------|
B|-----------------------------|-----------------------------|
G|-----------------------------|--------------------7--------|
D|--------------------5--------|----------7-----9---------9--|
A|----------5-----7---------7--|5--/--9----------------------|
E|3--/--7----------------------|-----------------------------|





A
e|0-----0-- 0-------- 0--------|0--0--0-- 0-------- 0--------|
B|2-----2---2---------2--------|2--2--2---2---------2--------|
G|2-----2---2---------2--------|2--2--2---2---------2--------|
D|2-----2---2---------2--------|2--2--2---2---------2--------|
A|0-----0---0---------0--------|0--0--0---0---------0--------|
E|-----------------------------|-----------------------------|
A5
e|--------- --------- ---------|--------- --------- ---------|
B|-----------------------------|-----------------------------|
G|-----------------------------|-----------------------------|
D|7-----7---7------------------|------7----------------------|
A|7-----7---7---------------7-H|8-H-9-----9-----7---------0--|
E|5-----5---5-----8-H-9--------|--------------------8-H-9----|



(.

e|0----------------------------------------------------------|
B|2----------------------------------------------------------|
G|2----------------------------------------------------------|
D|2----------------------------------------------------------|
A|0----------------------------------------------------------|
E|-----------------------------------------------------------|

e|--------------------------0H5P0H5P0------------------------|
B|-----------------------------------2H3P2H3P2H3P2H3P2-------|
G|-----------------------------------------------------------|
D|7----------------------------------------------------------|
A|7----------------------------------------------------------|
E|5----------------------------------------------------------|








B Bend
R Release
/ slide up
\ slide down
H hammer-on
P pull-off
~ vibrato
+ harmonic
x Mute note
. - play note like a dot in standard notation
^ - ties two notes together
(. Pause

pjvill

Submitted by pjvill at Sat 03 Dec, 2005 12:09 pm

Author: ?
Composer: ?
Publisher: ?
Language: English

Reactions

CommonCrawl [Bot]

Follow Muzikum