The Beatles

The Beatles
Devil In Her Heart (Guitar tab)

-------------------------------------------------------------------

THE BEATLES - DEVIL IN HER HEART (Lennon/McCartney) From WITH THE
BEATLES album. Released on 22nd November 1963.


-------------------------------------------------------------------

Tabbed by:PJVillanueva






She's got the devil in her heart
But her eyes they tantalize
She's gonna tear your heart apart
Oh her lips are really thrilling

I'll take my chances
for romance is
So important to me
She'll never hurt me
She won't desert me
She's an angel sent to me

She's got the devil in her heart
No, no, this I can't believe
She's gonna tear your heart apart
No, no nay will she deceive

I can't believe that she'll ever ever go
Not when she hugs and says she loves me so
She'll never hurt em
She won't desert me
Listen can't you see

She's got the devil in her heart
Oh, no, no, no, this I can't believe
She's gonna tear your heart apart
No no nay will she deceive

Don't take chances if your romance is
So important to you
She'll never hurt me
She won't desert me
She's an angel sent to me

She's got the devil in her heart
Oh, no, no, no, no this I can't believe
She's gonna tear your heart apart
No, no nay will she deceive

She's got the devil in her heart
No she's an angel sent to me
She's got the devil in her heart
No she's an angel sent to me





x X X
Am
e|------- ------- ------- -------|5------ ----5-- ------- 5------|
B|-------------------------------|5-----------5-----------5------|
G|-------------------------------|5-----------5-----------5------|
D|-------------------------------|7-----------7-----------7------|
A|-------------------------------|7-----------7-----------7------|
E|-------------------------------|5-----------5-----------5------|

e|------- ------- ------- -------|------8 -----7- -5----- -----3-|
B|-------------------------------|----10------8---7-----------5--|
G|-------------------------------|-------------------------------|
D|-------------------------------|-------------------------------|
A|-------------------------------|-------------------------------|
E|-------------------------------|-------------------------------|



D G
e|5------ 5------ 5------ 5------|3------ 3------ 3------ 3------|
B|7-------7-------7-------7------|3-------3-------3-------3------|
G|7-------7-------7-------7------|4-------4-------4-------4------|
D|7-------7-------7-------7------|5-------5-------5-------5------|
A|5-------5-------5-------5------|5-------5-------5-------5------|
E|-------------------------------|3-------3-------3-------3------|

e|-5-----5-----3- -2----0--------|------- ------- ------- -------|
B|7-----7-----5---3----1-------3-|--------3---5---3---3---2---1--|
G|----------------------------4--|-------4---5---4---4---3---2---|
D|-------------------------------|-------------------------------|
A|-------------------------------|-------------------------------|
E|-------------------------------|-------------------------------|



Am
e|3------ ------- ------- -------|5------ ----5-- ------- 5------|
B|3------------------------------|5-----------5-----------5------|
G|4------------------------------|5-----------5-----------5------|
D|5------------------------------|7-----------7-----------7------|
A|5------------------------------|7-----------7-----------7------|
E|3------------------------------|5-----------5-----------5------|
She's got the devil in her heart
e|------- ------- ------- -------|------- ------- ------- -------|
B|-0-----------------------------|-------------------------------|
G|0------------------------------|-------------------------------|
D|-------------------------------|-------------------------------|
A|-------------------------------|-------------------------------|
E|-------------------------------|-------------------------------|



D7 G Gsus4 G Gsus4
e|------- ------- ------- -------|------- ------- ------- -------|
B|3-----------3-----------3------|3-----------3---3-------3---3--|
G|5-----------5-----------5------|4-----------5---4-------4---5--|
D|4-----------4-----------4------|5-----------5---5-------5---5--|
A|5-----------5-----------5------|5---------------5--------------|
E|-------------------------------|-------------------------------|
But her eyes they tantalize


G Am
e|3------ ----3-- ------- 3------|5------ ----5-- ------- 5------|
B|3-----------3-----------3------|5-----------5-----------5------|
G|4-----------4-----------4------|5-----------5-----------5------|
D|5-----------5-----------5------|7-----------7-----------7------|
A|5-----------5-----------5------|7-----------7-----------7------|
E|3-----------3-----------3------|5-----------5-----------5------|
She's gonna tear your heart apart


D7 G C G C
e|------- ------- ------- -------|------- ------- ------- -------|
B|3-----------3-----------3------|3-----3-3---5---3-------3---5--|
G|5-----------5-----------5------|4-----4-4---5---4-------4---5--|
D|4-----------4-----------4------|5-----5-5---5---5-------5---5--|
A|5-----------5-----------5------|5---------------5-------5------|
E|-------------------------------|-------------------------------|
Oh her lips they really thrill me


G
e|3------ ----3-- ------- 3------|
B|3-----------3-----------3------|
G|4-----------4-----------4------|
D|5-----------5-----------5------|
A|5-----------5-----------5------|
E|3-----------3-----------3------|

e|------- ------- ------- -------|
B|--------0---0---1---1---3---3--|
G|--------0---0---2---2---4---4--|
D|-------------------------------|
A|-------------------------------|
E|-------------------------------|



C Cm
e|3------ ----3-- ------- 3------|3------ ----3-- 3------ 3------|
B|5-----------5-----------5------|4-----------4---4-------4------|
G|5-----------5-----------5------|5-----------5---5-------5------|
D|5-----------5-----------5------|5-----------5---5-------5------|
A|3-----------3-----------3------|3-----------3---3-------3------|
E|-------------------------------|-------------------------------|
I'll take my chances for romance is


G
e|3------ ----3-- ------- 3------|3------ ----3-- ------- 3------|
B|3-----------3-----------3------|3-----------3-----------3------|
G|4-----------4-----------4------|4-----------4-----------4------|
D|5-----------5-----------5------|5-----------5-----------5------|
A|5-----------5-----------5------|5-----------5-----------5------|
E|3-----------3-----------3------|3-----------3-----------3------|
So important to me
e|------- ------- ------- -------|------- ------- ------- -------|
B|-------------------------------|--------0---0---1---1---3---3--|
G|-------------------------------|--------0---0---2---2---4---4--|
D|-------------------------------|-------------------------------|
A|-------------------------------|-------------------------------|
E|-------------------------------|-------------------------------|


C Cm
e|3------ 3------ 3------ 3------|3------ ----3-- 3------ 3------|
B|5-------5-------5-------5------|4-----------4---4-------4------|
G|5-------5-------5-------5------|5-----------5---5-------5------|
D|5-------5-------5-------5------|5-----------5---5-------5------|
A|3-------3-------3-------3------|3-----------3---3-------3------|
E|-------------------------------|-------------------------------|
She'll never hurt me She won't desert me


A D7
e|5------ ----5-- 5------ 5------|------- ------- ------- -------|
B|5-----------5---5-------5------|3-----------3-----------3---3--|
G|6-----------6---6-------6------|5-----------5-----------5---5--|
D|7-----------7---7-------7------|4-----------4-----------4---4--|
A|7-----------7---7-------7------|5-----------5-----------5---5--|
E|5-----------5---5-------5------|-------------------------------|
She's an angel sent to me

Am
e|------- ------- ------- -------|5------ ----5-- ------- 5------|
B|3------------------------------|5-----------5-----------5------|
G|5------------------------------|5-----------5-----------5------|
D|4------------------------------|7-----------7-----------7------|
A|5------------------------------|7-----------7-----------7------|
E|-------------------------------|5-----------5-----------5------|
She's got the devil in her heart

D7 G C G C
e|------- ------- ------- -------|------- ------- ------- -------|
B|3-----------3-----------3------|3-----3-3---5---3-------3---5--|
G|5-----------5-----------5------|4-----4-4---5---4-------4---5--|
D|4-----------4-----------4------|5-----5-5---5---5-------5---5--|
A|5-----------5-----------5------|5---------------5-------5------|
E|-------------------------------|-------------------------------|
No, no, this I can't believe


G Am
e|3------ ----3-- ------- 3------|5------ ----5-- ----5-- 5------|
B|3-----------3-----------3------|5-----------5-------5---5------|
G|4-----------4-----------4------|5-----------5-------5---5------|
D|5-----------5-----------5------|7-----------7-------7---7------|
A|5-----------5-----------5------|7-----------7-------7---7------|
E|3-----------3-----------3------|5-----------5-------5---5------|
She's gonna tear your heart apart


D7 G C G C
e|------- ------- ------- -------|------- ------- ------- -------|
B|3-----------3-----------3------|3-----3-3---5---3-------3---5--|
G|5-----------5-----------5------|4-----4-4---5---4-------4---5--|
D|4-----------4-----------4------|5-----5-5---5---5-------5---5--|
A|5-----------5-----------5------|5---------------5--------------|
E|-------------------------------|-------------------------------|
No, no nay will she deceive



G
e|3------ ----3-- ------- 3------|
B|3-----------3-----------3------|
G|4-----------4-----------4------|
D|5-----------5-----------5------|
A|5-----------5-----------5------|
E|3-----------3-----------3------|

e|------- ------- ------- -------|
B|--------0---0---1---1---3---3--|
G|--------0---0---2---2---4---4--|
D|-------------------------------|
A|-------------------------------|
E|-------------------------------|



C Cm
e|3------ ----3-- ----3-- 3------|3------ ----3-- 3------ 3---3--|
B|5-----------5-------5---5------|4-----------4---4-------4---4--|
G|5-----------5-------5---5------|5-----------5---5-------5---5--|
D|5-----------5-------5---5------|5-----------5---5-------5---5--|
A|3-----------3-------3---3------|3-----------3---3-------3---3--|
E|-------------------------------|-------------------------------|
I can't believe that she'll ever ever go


G
e|3------ ----3-- ------- 3------|3------ 3---3-- ------- 3------|
B|3-----------3-----------3------|3-------3---3-----------3------|
G|4-----------4-----------4------|4-------4---4-----------4------|
D|5-----------5-----------5------|5-------5---5-----------5------|
A|5-----------5-----------5------|5-------5---5-----------5------|
E|3-----------3-----------3------|3-------3---3-----------3------|
Not when she hugs and says she loves me so


C Cm
e|3------ 3---3-- ------- 3------|3------ 3------ ------- 3------|
B|5-------5---5-----------5------|4-------4---------------4------|
G|5-------5---5-----------5------|5-------5---------------5------|
D|5-------5---5-----------5------|5-------5---------------5------|
A|3-------3---3-----------3------|3-------3---------------3------|
E|-------------------------------|-------------------------------|
She'll never hurt me She won't desert me


A D7
e|5------ 5------ 5------ 5------|------- ------- ------- -------|
B|5-------5-------5-------5------|3-------3---3-------3---3------|
G|6-------6-------6-------6------|5-------5---5-------5---5------|
D|7-------7-------7-------7------|4-------4---4-------4---4------|
A|7-------7-------7-------7------|5-------5---5-------5---5------|
E|5-------5-------5-------5------|-------------------------------|
Listen, can't you see

Am
e|------- ------- ------- -------|5------ ----5-- ------- 5------|
B|3------------------------------|5-----------5-----------5------|
G|5------------------------------|6-----------6-----------6------|
D|4------------------------------|7-----------7-----------7------|
A|5------------------------------|7-----------7-----------7------|
E|-------------------------------|5-----------5-----------5------|
She's got the devil in her heart

D7 G C G C
e|------- ------- ------- -------|------- ------- ------- -------|
B|3-----------3-----------3------|3-----3-3---5---3-------3---5--|
G|5-----------5-----------5------|4-----4-4---5---4-------4---5--|
D|4-----------4-----------4------|5-----5-5---5---5-------5---5--|
A|5-----------5-----------5------|5---------------5--------------|
E|-------------------------------|-------------------------------|
Oh, no, no, this I can't believe


G Am
e|3------ 3------ 3------ 3------|5------ ----5-- ------- 5------|
B|3-------3-------3-------3------|5-----------5-----------5------|
G|4-------4-------4-------4------|5-----------5-----------5------|
D|5-------5-------5-------5------|7-----------7-----------7------|
A|5-------5-------5-------5------|7-----------7-----------7------|
E|3-------3-------3-------3------|5-----------5-----------5------|
She's gonna tear your heart apart


D7 G C G C
e|------- ------- ------- -------|------- ------- ------- -------|
B|3-----------3-------3---3------|3-----3-3---5---3-------3---5--|
G|5-----------5-------5---5------|4-----4-4---5---4-------4---5--|
D|4-----------4-------4---4------|5-----5-5---5---5-------5---5--|
A|5-----------5-------5---5------|5-----5-5-------5--------------|
E|-------------------------------|-------------------------------|
No no nay will she deceive


G
e|------- ------- ------- -------|
B|3-----3-3---3-------3---3------|
G|4-----4-4---4-------4---4------|
D|5-----5-5---5-------5---5------|
A|5------------------------------|
E|-------------------------------|



C Cm
e|3------ 3------ 3------ 3------|3------ 3------ 3------ 3------|
B|5-------5-------5-------5------|4-------4-------4-------4------|
G|5-------5-------5-------5------|5-------5-------5-------5------|
D|5-------5-------5-------5------|5-------5-------5-------5------|
A|3-------3-------3-------3------|3-------3-------3-------3------|
E|-------------------------------|-------------------------------|
Don't take chances if your romance is


G
e|3------ ----3-- ------- 3------|3------ ----3-- ------- 3------|
B|3-----------3-----------3------|3-----------3-----------3------|
G|4-----------4-----------4------|4-----------4-----------4------|
D|5-----------5-----------5------|5-----------5-----------5------|
A|5-----------5-----------5------|5-----------5-----------5------|
E|3-----------3-----------3------|3-----------3-----------3------|
So important to you
e|------- ------- ------- -------|------- ------- ------- -------|
B|-------------------------------|--------0---0---1---1---3---3--|
G|-------------------------------|--------0---0---2---2---4---4--|
D|-------------------------------|-------------------------------|
A|-------------------------------|-------------------------------|
E|-------------------------------|-------------------------------|



C Cm
e|3------ ----3-- 3------ 3------|3------ ----3-- 3------ 3------|
B|5-----------5---5-------5------|4-----------4---4-------4------|
G|5-----------5---5-------5------|5-----------5---5-------5------|
D|5-----------5---5-------5------|5-----------5---5-------5------|
A|3-----------3---3-------3------|3-----------3---3-------3------|
E|-------------------------------|-------------------------------|
She'll never hurt me She won't desert me


A D7
e|5------ 5------ 5------ 5------|------- ------- ------- -------|
B|5-------5-------5-------5------|3-----------3-----------3---3--|
G|6-------6-------6-------6------|5-----------5-----------5---5--|
D|7-------7-------7-------7------|4-----------4-----------4---4--|
A|7-------7-------7-------7------|5-----------5-----------5---5--|
E|5-------5-------5-------5------|-------------------------------|
She's an angel sent to me

Am
e|------- ------- ------- -------|5------ ----5-- ------- 5------|
B|3------------------------------|5-----------5-----------5------|
G|5------------------------------|6-----------6-----------6------|
D|4------------------------------|7-----------7-----------7------|
A|5------------------------------|7-----------7-----------7------|
E|-------------------------------|5-----------5-----------5------|
She's got the devil in her heart No, no,

D7 G C G C
e|------- ------- ------- -------|------- ------- ------- -------|
B|3-----------3-------3---3------|3-----3-3---5---3-------3---5--|
G|5-----------5-------5---5------|4-----4-4---5---4-------4---5--|
D|4-----------4-------4---4------|5-----5-5---5---5-------5---5--|
A|5-----------5-------5---5------|5---------------5--------------|
E|-------------------------------|-------------------------------|
no, no this I can't believe


G Am
e|------- ------- ------- -------|5------ 5---5-- ----5-- 5------|
B|3---3---3-------3---3---3------|5-------5---5-------5---5------|
G|4---4---4-------4---4---4------|5-------5---5-------5---5------|
D|5---5---5-------5---5---5------|7-------7---7-------7---7------|
A|5---5---5-------5---5---5------|7-------7---7-------7---7------|
E|-------------------------------|5-------5---5-------5---5------|
She's gonna tear your heart apart


D7 G C G C
e|------- ------- ------- -------|------- ------- ------- -------|
B|3-----------3-------3---3------|3-----3-3---5---3-------3---5--|
G|5-----------5-------5---5------|4-----4-4---5---4-------4---5--|
D|4-----------4-------4---4------|5-----5-5---5---5-------5---5--|
A|5-----------5-------5---5------|5---------------5--------------|
E|-------------------------------|-------------------------------|
No, no nay will she deceive



G Am
e|3---3-- 3------ 3------ 3------|5------ ----5-- ------- 5------|
B|3---3---3-------3-------3------|5-----------5-----------5------|
G|4---4---4-------4-------4------|5-----------5-----------5------|
D|5---5---5-------5-------5------|7-----------7-----------7------|
A|5---5---5-------5-------5------|7-----------7-----------7------|
E|3---3---3-------3-------3------|5-----------5-----------5------|
She's got the devil in her heart
e|-----8- ------- ------- -------|-----8- ----7-- 5------ ----3--|
B|----10-------------------------|----10------8---7-----------5--|
G|-------------------------------|-------------------------------|
D|-------------------------------|-------------------------------|
A|-------------------------------|-------------------------------|
E|-------------------------------|-------------------------------|



D7 G
e|------- ------- ------- -------|3------ ----3-- 3------ 3---3--|
B|3-----------3-----------3------|3-----------3---3-------3---3--|
G|5-----------5-----------5------|4-----------4---4-------4---4--|
D|4-----------4-----------4------|5-----------5---5-------5---5--|
A|5-----------5-----------5------|5-----------5---5-------5---5--|
E|-------------------------------|3-----------3---5-------3---3--|
No she's an angel sent to me

e|5---5-- ----3-- 2---0-- -------|------- ------- ------- -------|
B|7---7-------5---3---1-------3--|------------5----3--3---2---1--|
G|----------------------------4--|------------5----4--4---3---2--|
D|-------------------------------|-------------------------------|
A|-------------------------------|-------------------------------|
E|-------------------------------|-------------------------------|



Am
e|3------ ----3-- ------- 3------|5------ ----5-- ------- 5------|
B|3-----------3-----------3------|5-----------5-----------5------|
G|4-----------4-----------4------|5-----------5-----------5------|
D|5-----------5-----------5------|7-----------7-----------7------|
A|5-----------5-----------5------|7-----------7-----------7------|
E|3-----------3-----------3------|5-----------5-----------5------|
She's got the devil in her heart
e|----5-- ----5-- 4---4-- ----4--|-----8- ----7-- 5------ ----3-/|
B|0---7-------7---6---6-------6--|----10------8---7-----------5-/|
G|0------------------------------|-------------------------------|
D|-------------------------------|-------------------------------|
A|-------------------------------|-------------------------------|
E|-------------------------------|-------------------------------|



D7 G
e|------- ------- ------- -------|3------ ----3-- ------- 3---3--|
B|3-----------3-----------3------|3-----------3-----------3---3--|
G|5-----------5-----------5------|4-----------4-----------4---4--|
D|4-----------4-----------4------|5-----------5-----------5---5--|
A|5-----------5-----------5------|5-----------5-----------5---5--|
E|-------------------------------|3-----------3-----------3---3--|
No she's an angel sent to me
e|5---5-- ----3-- 2---0-- -------|------- ------- ------- -------|
B|7---7-------5---3---1-------3--|--------3---5----3--3---2---1--|
G|----------------------------4--|--------4---5----4--4---3---2--|
D|-------------------------------|-------------------------------|
A|-------------------------------|-------------------------------|
E|-------------------------------|-------------------------------|


(.

e|3------ ------- -3----- -------|------- ------- ------- -------|
B|3----------------3-------------|-------------------------------|
G|4----------------4-------------|-------------------------------|
D|5----------------5-------------|-------------------------------|
A|5----------------5-------------|-------------------------------|
E|3----------------3-------------|-------------------------------|
G6/9
e|------- ------- 10----- -------|------- ------- ------- -------|
B|----------------10-------------|-------------------------------|
G|-----------------9-------------|-------------------------------|
D|-----------------9-------------|-------------------------------|
A|----------------10-------------|-------------------------------|
E|-------------------------------|-------------------------------











B Bend
R Release
/ slide up
\ slide down
H hammer-on
P pull-off
~ vibrato
+ harmonic
x Mute note
. - play note like a dot in standard notation
^ - ties two notes together
(. Pause

pjvill

Submitted by pjvill at Sat 03 Dec, 2005 12:08 pm

Author: ?
Composer: ?
Publisher: ?
Language: English

Reactions

CommonCrawl [Bot]

Follow Muzikum