The Beatles

The Beatles
Day Tripper Ver 5 (Guitar tab)

-------------------------------------------------------------------

THE BEATLES - DAY TRIPPER (Lennon/McCartney) Released as a double
A-side single with WE CAN WORK IT OUT on 3 December
1965.


-------------------------------------------------------------------

Tabbed by:PJVillanueva







Got a good reason for taking the easy way out
Got a good reason for taking the easy way out now

She was a day tripper, a one way ticket yea
It took me so long to find out, and I found out

She's a big teaser, she took me half the way there
She's a big teaser, she took me half the way there now

Tried to please her, she only played one night stands
Tried to please her, she only played one night stands now

She was a day tripper, a Sunday driver, yeah
Took me so long to find out, and I found out

Day tripper
Day tripper yeah





e|------- ------- ------- -------|------- ------- ------- -------|
B|-------------------------------|-------------------------------|
G|-------------------------------|-------------------------------|
D|------------------------2---0--|------------4-----------0---2--|
A|--------------------2----------|--------2-----------2----------|
E|0----------3----4--------------|-------------------------------|


e|------- ------- ------- -------|------- ------- ------- -------|
B|-------------------------------|-------------------------------|
G|-------------------------------|-------------------------------|
D|------------------------2---0--|------------4-----------0---2--|
A|--------------------2----------|--------2-----------2----------|
E|0----------3----4--------------|-------------------------------|
E
e|------- ------- ------- -------|------- ------- ------- ----0--|
B|-------------------------------|----------------------------0--|
G|-------------------------------|----------------------------1--|
D|-------------------------------|----------------------------2--|
A|-------------------------------|----------------------------2--|
E|-------------------------------|----------------------------0--|



e|------- ------- ------- -------|------- ------- ------- -------|
B|-------------------------------|-------------------------------|
G|-------------------------------|-------------------------------|
D|------------------------2---0--|------------4-----------0---2--|
A|--------------------2----------|--------2-----------2----------|
E|0----------3----4--------------|-------------------------------|

e|------- 0------ 0---0-- ----0--|----0-- 0------ 0------ 0---0--|
B|--------0-------0---0-------0--|----0---0-------0-------0---0--|
G|--------1-------1---1-------1--|----1---1-------1-------1---1--|
D|--------2-------2---2-------2--|----2---2-------2-------2---2--|
A|--------2-------2---2-------2--|----2---2-------2-------2---2--|
E|--------0-------0---0-------0--|----0---0-------0-------0---0--|



e|------- ------- ------- -------|------- ------- ------- -------|
B|-------------------------------|-------------------------------|
G|-------------------------------|-------------------------------|
D|------------------------2---0--|------------4-----------0---2--|
A|--------------------2----------|--------2-----------2----------|
E|0----------3----4--------------|-------------------------------|

e|0------ 0------ 0---0-- 0---0--|----0-- 0------ 0---0-- 0---0--|
B|0-------0-------0---0---0---0--|----0---0-------0---0---0---0--|
G|1-------1-------1---1---1---1--|----1---1-------1---1---1---1--|
D|2-------2-------2---2---2---2--|----2---2-------2---2---2---2--|
A|2-------2-------2---2---2---2--|----2---2-------2---2---2---2--|
E|0-------0-------0---0---0---0--|----0---0-------0---0---0---0--|



e|------- ------- ------- -------|------- ------- ------- -------|
B|-------------------------------|-------------------------------|
G|-------------------------------|-------------------------------|
D|------------------------2---0--|------------4-----------0---2--|
A|--------------------2----------|--------2-----------2----------|
E|0----------3----4--------------|-------------------------------|

e|0------ 0------ 0---0-- 0---0--|----0-- 0---0-- ----0-- 0---0--|
B|0-------0-------0---0---0---0--|----0---0---0-------0---0---0--|
G|1-------1-------1---1---1---1--|----1---1---1-------1---1---1--|
D|2-------2-------2---2---2---2--|----2---2---2-------2---2---2--|
A|2-------2-------2---2---2---2--|----2---2---2-------2---2---2--|
E|0-------0-------0---0---0---0--|----0---0---0-------0---0---0--|



e|------- ------- ------- -------|------- ------- ------- -------|
B|-------------------------------|-------------------------------|
G|-------------------------------|-------------------------------|
D|------------------------2---0--|------------4-----------0---2--|
A|--------------------2----------|--------2-----------2----------|
E|0----------3----4--------------|-------------------------------|

e|------- 0------ 0---0-- ----0--|----0-- 0---0-- ----0-- 0---0--|
B|--------0-------0---0-------0--|----0---0---0-------0---0---0--|
G|--------1-------1---1-------1--|----1---1---1-------1---1---1--|
D|--------2-------2---2-------2--|----2---2---2-------2---2---2--|
A|--------2-------2---2-------2--|----2---2---2-------2---2---2--|
E|--------0-------0---0-------0--|----0---0---0-------0---0---0--|
Got a good reason for



e|------- ------- ------- -------|------- ------- ------- -------|
B|-------------------------------|-------------------------------|
G|-------------------------------|-------------------------------|
D|------------------------2---0--|------------4-----------0---2--|
A|--------------------2----------|--------2-----------2----------|
E|0----------3----4--------------|-------------------------------|
taking the easy way out
e|------- 0------ 0---0-- 0---0--|----0-- 0---0-- ----0-- 0---0--|
B|--------0-------0---0---0---0--|----0---0---0-------0---0---0--|
G|--------1-------1---1---1---1--|----1---1---1-------1---1---1--|
D|--------2-------2---2---2---2--|----2---2---2-------2---2---2--|
A|--------2-------2---2---2---2--|----2---2---2-------2---2---2--|
E|--------0-------0---0---0---0--|----0---0---0-------0---0---0--|




e|------- ------- ------- -------|------- ------- ------- -------|
B|-------------------------------|-------------------------------|
G|------------------------2---0--|------------4-----------0---2--|
D|--------------------2----------|--------2-----------2----------|
A|0-----------3---4--------------|-------------------------------|
E|-------------------------------|-------------------------------|
A
e|0------ 0------ 0---0-- 0---0--|------- 0---0-- 0---0-- 0---0--|
B|2-------2-------2---2---2---2--|--------2---2---2---2---2---2--|
G|2-------2-------2---2---2---2--|--------2---2---2---2---2---2--|
D|2-------2-------2---2---2---2--|--------2---2---2---2---2---2--|
A|0-------0-------0---0---0---0--|--------0---0---0---0---0---0--|
E|-------------------------------|-------------------------------|
Got a good reason for


e|------- ------- ------- -------|------- ------- ------- -------|
B|-------------------------------|-------------------------------|
G|-------------------------------|-------------------------------|
D|------------------------2---0--|------------4-----------0---2--|
A|--------------------2----------|--------2-----------2----------|
E|0----------3----4--------------|-------------------------------|
E
e|------- 0------ 0---0-- 0---0--|----0-- 0---0-- ----0-- 0---0--|
B|--------0-------0---0---0---0--|----0---0---0-------0---0---0--|
G|--------1-------1---1---1---1--|----1---1---1-------1---1---1--|
D|--------2-------2---2---2---2--|----2---2---2-------2---2---2--|
A|--------2-------2---2---2---2--|----2---2---2-------2---2---2--|
E|-------------------------------|-------------------------------|
taking the easy way out She was a



e|------- ------- ------- -------|------- ------- ------- -------|
B|-------------------------------|-------------------------------|
G|-------------------------------|-------------------------------|
D|-------------------------------|--------4---4---4-------4---4--|
A|-------------------------------|--------4---4---4-------4---4--|
E|-------------------------------|0-H-2---2---2---2-------2---2--|
F#7
e|------- 2------ 2---2-- 2---2--|------- 2------ 2---2-- 2---2--|
B|--------5-------5---5---5---5--|--------5-------5---5---5---5--|
G|--------3-------3---3---3---3--|--------3-------3---3---3---3--|
D|--------2-------2---2---2---2--|--------2-------2---2---2---2--|
A|--------4-------4---4---4---4--|--------4-------4---4---4---4--|
E|--------2-------2---2---2---2--|--------2-------2---2---2---2--|
daaaaaaaaaaaaaaaaaaaaaaaaaaaaay tripper




e|------- ------- ------- -------|------- ------- ------- -------|
B|-------------------------------|-------------------------------|
G|-------------------------------|-------------------------------|
D|-------------------------------|4-------4---4---4-------4---4-/|
A|-------------------------------|4-------4---4---4-------4---4-/|
E|-------------------------------|2-------2---2---2-------2---2-/|

e|------- 2------ 2---2-- 2---2--|2------ 2------ 2---2-- 2---2--|
B|--------5-------5---5---5---5--|5-------5-------5---5---5---5--|
G|--------3-------3---3---3---3--|3-------3-------3---3---3---3--|
D|--------2-------2---2---2---2--|2-------2-------2---2---2---2--|
A|--------4-------4---4---4---4--|4-------4-------4---4---4---4--|
E|--------2-------2---2---2---2--|2-------2-------2---2---2---2--|
One way ticket, yeah It took me


e|------- ------- ------- -------|------- ------- ------- -------|
B|-------------------------------|-------------------------------|
G|-------------------------------|-------------------------------|
D|7---7---7---7---7---7---7---7--|6---6---6---6---6---6---6---6-/|
A|7---7---7---7---7---7---7---7--|6---6---6---6---6---6---6---6-/|
E|5---5---5---5---5---5---5---5--|4---4---4---4---4---4---4---4-/|
A7 G#7
e|5------ 5---5-- ----5-- ----5--|4------ 4---4-- ----4-- 4------|
B|8-------8---8-------8-------8--|7-------7---7-------7---7------|
G|6-------6---6-------6-------6--|5-------5---5-------5---5------|
D|5-------5---5-------5-------5--|4-------4---4-------4---4------|
A|7-------7---7-------7-------7--|6-------6---6-------6---6------|
E|5-------5---5-------5-------5--|4-------4---4-------4---4------|
sooooooooooooooooooooooooooooo long to find out


e|------- ------- ------- -------|------- ------- ------- -------|
B|-------------------------------|-------------------------------|
G|-------------------------------|-------------------------------|
D|11------11------11--11--11--11-|9-------9-------9---9---9------|
A|11------11------11--11--11--11-|9-------9-------9---9---9------|
E|-9-------9-------9---9---9---9-|7-------7-------7---7---7------|
C#7 B7
e|-9----- -9----- -9----- -9-----|-7----- -7----- -7----- -------|
B|12------12------12------12-----|10------10------10-------------|
G|10------10------10------10-----|-8-------8-------8-------------|
D|-9-------9-------9-------9-----|-7-------7-------7-------------|
A|11------11------11------11-----|-9-------9-------9-------------|
E|-9-------9-------9-------9-----|-7-------7-------7-------------|
and I found out


e|------- ------- ------- -------|------- ------- ------- -------|
B|-------------------------------|-------------------------------|
G|-------------------------------|-------------------------------|
D|------------------------2---0--|------------4-----------0---2--|
A|--------------------2----------|--------2-----------2----------|
E|0----------3----4--------------|-------------------------------|
E
e|------- ------- ------- -------|------- ------- ------- ----0--|
B|-------------------------------|----------------------------0--|
G|-------------------------------|----------------------------1--|
D|-------------------------------|----------------------------2--|
A|-------------------------------|----------------------------2--|
E|-------------------------------|----------------------------0--|



e|------- ------- ------- -------|------- ------- ------- -------|
B|-------------------------------|-------------------------------|
G|-------------------------------|-------------------------------|
D|------------------------2---0--|------------4-----------0---2--|
A|--------------------2----------|--------2-----------2----------|
E|0----------3----4--------------|-------------------------------|

e|------- 0------ ----0-- ----0--|------- 0------ 0------ 0---0--|
B|--------0-----------0-------0--|--------0-------0-------0---0--|
G|--------1-----------1-------1--|--------1-------1-------1---1--|
D|--------2-----------2-------2--|--------2-------2-------2---2--|
A|--------2-----------2-------2--|--------2-------2-------2---2--|
E|--------0-----------0-------0--|--------0-------0-------0---0--|



e|------- ------- ------- -------|------- ------- ------- -------|
B|-------------------------------|-------------------------------|
G|-------------------------------|-------------------------------|
D|------------------------2---0--|------------4-----------0---2--|
A|--------------------2----------|--------2-----------2----------|
E|0----------3----4--------------|-------------------------------|

e|------- 0------ ----0-- ----0--|----0-- 0------ ----0-- 0---0--|
B|--------0-----------0-------0--|----0---0-----------0---0---0--|
G|--------1-----------1-------1--|----1---1-----------1---1---1--|
D|--------2-----------2-------2--|----2---2-----------2---2---2--|
A|--------2-----------2-------2--|----2---2-----------2---2---2--|
E|--------0-----------0-------0--|----0---0-----------0---0---0--|
She's a big teaser



e|------- ------- ------- -------|------- ------- ------- -------|
B|-------------------------------|-------------------------------|
G|-------------------------------|-------------------------------|
D|------------------------2---0--|------------4-----------0---2--|
A|--------------------2----------|--------2-----------2----------|
E|0----------3----4--------------|-------------------------------|

e|0------ 0------ ----0-- ----0--|----0-- 0------ 0---0-- 0---0--|
B|0-------0-----------0-------0--|----0---0-------0---0---0---0--|
G|1-------1-----------1-------1--|----1---1-------1---1---1---1--|
D|2-------2-----------2-------2--|----2---2-------2---2---2---2--|
A|2-------2-----------2-------2--|----2---2-------2---2---2---2--|
E|0-------0-----------0-------0--|----0---0-------0---0---0---0--|
She took me half the way there



e|------- ------- ------- -------|------- ------- ------- -------|
B|-------------------------------|-------------------------------|
G|------------------------2---0--|------------4-----------0---2--|
D|--------------------2----------|--------2-----------2----------|
A|0-----------3---4--------------|-------------------------------|
E|-------------------------------|-------------------------------|
A
e|0------ 0------ 0---0-- 0---0--|----0-- 0------ 0------ 0---0--|
B|2-------2-------2---2---2---2--|----2---2-------2-------2---2--|
G|2-------2-------2---2---2---2--|----2---2-------2-------2---2--|
D|2-------2-------2---2---2---2--|----2---2-------2-------2---2--|
A|0-------0-------0---0---0---0--|----0---0-------0-------0---0--|
E|-------------------------------|-------------------------------|
She's a big teaser


e|------- ------- ------- -------|------- ------- ------- -------|
B|-------------------------------|-------------------------------|
G|-------------------------------|-------------------------------|
D|------------------------2---0--|------------4-----------0---2--|
A|--------------------2----------|--------2-----------2----------|
E|0----------3----4--------------|-------------------------------|
E
e|------- 0------ 0---0-- 0---0--|----0-- 0------ ----0-- 0---0--|
B|--------0-------0---0---0---0--|----0---0-----------0---0---0--|
G|--------1-------1---1---1---1--|----1---1-----------1---1---1--|
D|--------2-------2---2---2---2--|----2---2-----------2---2---2--|
A|--------2-------2---2---2---2--|----2---2-----------2---2---2--|
E|-------------------------------|-------------------------------|
She took me half the way there now She was a




e|------- ------- ------- -------|------- ------- ------- -------|
B|-------------------------------|-------------------------------|
G|-------------------------------|-------------------------------|
D|-------------------------------|--------4---4---4-------4---4--|
A|-------------------------------|--------4---4---4-------4---4--|
E|-------------------------------|0-H-2---2---2---2-------2---2--|
F#7
e|------- 2------ ----2-- ----2--|------- 2------ ----2-- ----2--|
B|--------5-----------5-------5--|--------5-----------5-------5--|
G|--------3-----------3-------3--|--------3-----------3-------3--|
D|--------2-----------2-------2--|--------2-----------2-------2--|
A|--------4-----------4-------4--|--------4-----------4-------4--|
E|--------2-----------2-------2--|--------2-----------2-------2--|
daaaaaaaaaaaaaaaaaaaaaaaaaaaaay tripper




e|------- ------- ------- -------|------- ------- ------- -------|
B|-------------------------------|-------------------------------|
G|-------------------------------|-------------------------------|
D|-------------------------------|4-------4---4---4-------4---4-/|
A|-------------------------------|4-------4---4---4-------4---4-/|
E|-------------------------------|2-------2---2---2-------2---2-/|

e|------- 2------ ----2-- ----2--|------- 2------ ----222 222222-|
B|--------5-----------5-------5--|--------5-----------555-555555-|
G|--------3-----------3-------3--|--------3-----------333-333333-|
D|--------2-----------2-------2--|--------2-----------222-222222-|
A|--------4-----------4-------4--|--------4-----------444-444444-|
E|--------2-----------2-------2--|--------2-----------222-222222-|
One way ticket, yeah It took me


e|------- ------- ------- -------|------- ------- ------- -------|
B|-------------------------------|-------------------------------|
G|-------------------------------|-------------------------------|
D|7---7---7---7---7---7---7---7--|6---6---6---6---6---6---6---6-/|
A|7---7---7---7---7---7---7---7--|6---6---6---6---6---6---6---6-/|
E|5---5---5---5---5---5---5---5--|4---4---4---4---4---4---4---4-/|
A7 G#7
e|------- 5------ ----5-- ----5--|------- 4------ ----4-- -------|
B|--------8-----------8-------8--|--------7-----------7----------|
G|--------6-----------6-------6--|--------5-----------5----------|
D|--------5-----------5-------5--|--------4-----------4----------|
A|--------7-----------7-------7--|--------6-----------6----------|
E|--------5-----------5-------5--|--------4-----------4----------|
sooooooooooooooooooooooooooooo long to find out


e|------- ------- ------- -------|------- ------- ------- -------|
B|-------------------------------|-------------------------------|
G|-------------------------------|-------------------------------|
D|11------11------11--11--11--11-|9-------9-------9---9---9------|
A|11------11------11--11--11--11-|9-------9-------9---9---9------|
E|-9-------9-------9---9---9---9-|7-------7-------7---7---7------|
C#7 B7 A7
e|-9----- -9----- -9---9- ----9--|-7----- -7----- -7---7- -----5-|
B|12------12------12--12-----12--|10------10------10--10-------8-|
G|10------10------10--10-----10--|-8-------8-------8---8-------6-|
D|-9-------9-------9---9------9--|-7-------7-------7---7-------5-|
A|11------11------11--11-----11--|-9-------9-------9---9-------7-|
E|-9-------9-------9---9------9--|-7-------7-------7---7-------5-|
and I found out




Solo


e|------- ------- ------- -------|------- ------- ------- -------|
B|-------------------------------|-------------------------------|
G|-------------------------------|-------------------------------|
D|-9----------------------9----7-|------------11-----------7-H-9-|
A|-9-------------------9---------|---------9-----------9---------|
E|-7----------10--11-------------|-------------------------------|
B Badd9
e|-7----- -7----- -----7- -7---7-|-7----- -7----- -7---7- -7---7-|
B|-7-------7-----------7---7---7-|-7-------7-------7---7---7---7-|
G|-8-------8-----------8---8---8-|-8-------8-------8---8---8---8-|
D|-9-------9-----------9---9---9-|11------11------11--11--11--11-|
A|-9-------9-----------9---9---9-|-9-------9-------9---9---9---9-|
E|-7-------7-----------7---7---7-|-7-------7-------7---7---7---7-|

e|------- ------- ------- -------|------- ------- ------- -------|
B|-------------------------------|-------------------------------|
G|-------------------------------|-------------------------------|
D|-------------------------------|-------------------------------|
A|-------------------------------|-------------------------------|
E|--------7----------------------|--------9----------------------|





e|------- ------- ------- -------|------- ------- ------- -------|
B|-------------------------------|-------------------------------|
G|-------------------------------|-------------------------------|
D|-9----------------------9----7-|------------11-----------7-H-9-|
A|-9-------------------9---------|---------9-----------9---------|
E|-7----------10--11-------------|-------------------------------|
B B7sus4 B
e|-7---7- -7----- -7---7- -7---7-|-7----- -7----- -7---7- -7---7-|
B|-7---7---7-------7---7---7---7-|-7-------7-------7---7---7---7-|
G|-8---8---8-------8---8---8---8-|-9-------9-------9---9---9---8-|
D|-9---9---9-------9---9---9---9-|-7-------7-------7---7---7---9-|
A|-9---9---9-------9---9---9---9-|-9-------9-------9---9---9---9-|
E|-7---7---7-------7---7---7---7-|-7-------7-------7---7---7---7-|

e|------- ------- ------- -------|------- ------- ------- -------|
B|-------------------------------|-------------------------------|
G|-------------------------------|-------------------------------|
D|-------------------------------|-------------------------------|
A|--------6----------------------|--------7----------------------|
E|-------------------------------|-------------------------------|




e|------- ------- ------- -------|------- ------- ------- -------|
B|-------------------------------|-------------------------------|
G|-------------------------------|-------------------------------|
D|-9----------------------9----7-|------------11-----------7-H-9-|
A|-9-------------------9---------|---------9-----------9---------|
E|-7----------10--11-------------|-------------------------------|
B13 B7
e|-7---7- -7----- -7---7- -7---7-|-7----- -7----- -7---7- -7---7-|
B|-7---7---7-------7---7---7---7-|-9-------9-------9---9---9--10-|
G|-8---8---8-------8---8---8---8-|-8-------8-------8---8---8---8-|
D|-9---9---9-------9---9---9---9-|-7-------7-------7---7---7---7-|
A|-9---9---9-------9---9---9---9-|-9-------9-------9---9---9---9-|
E|-7---7---7-------7---7---7---7-|-7-------7-------7---7---7---7-|

e|------- ------- ------- -------|------- ------- ------- -------|
B|-------------------------------|-------------------------------|
G|-------------------------------|-------------------------------|
D|-------------------------------|--------6----------------------|
A|--------9----------------------|-------------------------------|
E|-------------------------------|-------------------------------|




e|------- ------- ------- -------|------- ------- ------- -------|
B|-------------------------------|----10-------------------------|
G|--------------9P7-------7---9-B|11--------------11-R-9---------|
D|9-------9-----------9----------|-------------------------------|
A|-------------------------------|-------------------------------|
E|-------------------------------|-------------------------------|
B
e|-7---7- -7----- -7---7- -7---7-|-7---7- -7----- -7---7- -7---7-|
B|10--10--10------10--10--10--10-|-7---7---7-------7---7---7---7-|
G|-8---8---8-------8---8---8---8-|-8---8---8-------8---8---8---8-|
D|-7---7---7-------7---7---7---7-|-9---9---9-------9---9---9---9-|
A|-9---9---9-------9---9---9---9-|-9---9---9-------9---9---9---9-|
E|-7---7---7-------7---7---7---7-|-7---7---7-------7---7---7---7-|

e|------- ------- ------- -------|------- ------- ------- -------|
B|-------------------------------|-------------------------------|
G|-------------------------------|-------------------------------|
D|--------7----------------------|--------9----------------------|
A|-------------------------------|-------------------------------|
E|-------------------------------|-------------------------------|




e|------- ------- ------- -------|------- ------- ------- -------|
B|----------------15------15--1717B1919R1715---------------------|
G|16------16----------16---------|------------16-----------------|
D|-------------------------------|-------------------------------|
A|-------------------------------|-------------------------------|
E|-------------------------------|-------------------------------|
B9 B7
e|-9---9- -9----- -9---9- -9---9-|11--11- 11----- 11--11- 11--11-|
B|-7---7---7-------7---7---7---7-|-7---7---7-------7---7---7---7-|
G|-8---8---8-------8---8---8---8-|-8---8---8-------8---8---8---8-|
D|-7---7---7-------7---7---7---7-|-7---7---7-------7---7---7---7-|
A|-9---9---9-------9---9---9---9-|-9---9---9-------9---9---9---9-|
E|-7---7---7-------7---7---7---7-|-7---7---7-------7---7---7---7-|

e|------- ------- ------- -------|------- ------- ------- -------|
B|-------------------------------|-------------------------------|
G|--------6----------------------|--------8----------------------|
D|-------------------------------|-------------------------------|
A|-------------------------------|-------------------------------|
E|-------------------------------|-------------------------------|



B7sus4 B
e|-7---7- -7----- -7---7- -7---7-|-7---7- -7----- -7---7- -7---7-|
B|-7---7---7-------7---7---7---7-|-7---7---7-------7---7---7---7-|
G|-9---9---9-------9---9---9---9-|-8---8---8-------8---8---8---8-|
D|-7---7---7-------7---7---7---7-|-9---9---9-------9---9---9---9-|
A|-9---9---9-------9---9---9---9-|-9---9---9-------9---9---9---9-|
E|-7---7---7-------7---7---7---7-|-7---7---7-------7---7---7---7-|

e|------- ------- ------- -------|------- ------- ------- -------|
B|-------------------------------|----7--------------------------|
G|--------9----------------------|-------------------------------|
D|-------------------------------|-------------------------------|
A|-------------------------------|-------------------------------|
E|-------------------------------|-------------------------------|




e|------- ------- ------- -------|------- ------- ------- -------|
B|-------------------------------|-------------------------------|
G|-------------------------------|-------------------------------|
D|------------------------2---0--|------------4-----------0---2--|
A|--------------------2----------|--------2-----------2----------|
E|0----------3----4--------------|-------------------------------|
E
e|------- ------- ------- -------|------- ------- ------- ----0--|
B|-------------------------------|----------------------------0--|
G|-------------------------------|----------------------------1--|
D|-------------------------------|----------------------------2--|
A|-------------------------------|----------------------------2--|
E|-------------------------------|----------------------------0--|




e|------- ------- ------- -------|------- ------- ------- -------|
B|-------------------------------|-------------------------------|
G|-------------------------------|-------------------------------|
D|------------------------2---0--|------------4-----------0---2--|
A|--------------------2----------|--------2-----------2----------|
E|0----------3----4--------------|-------------------------------|

e|------- 0------ ----0-- ----0--|----0-- ------- 0------ 0---0--|
B|--------0-----------0-------0--|----0-----------0-------0---0--|
G|--------1-----------1-------1--|----1-----------1-------1---1--|
D|--------2-----------2-------2--|----2-----------2-------2---2--|
A|--------2-----------2-------2--|----2-----------2-------2---2--|
E|--------0-----------0-------0--|----0-----------0-------0---0--|



e|------- ------- ------- -------|------- ------- ------- -------|
B|-------------------------------|-------------------------------|
G|-------------------------------|-------------------------------|
D|------------------------2---0--|------------4-----------0---2--|
A|--------------------2----------|--------2-----------2----------|
E|0----------3----4--------------|-------------------------------|

e|------- 0------ 0---0-- ----0--|----0-- ------- 0---0-- 0---0--|
B|--------0-------0---0-------0--|----0-----------0---0---0---0--|
G|--------1-------1---1-------1--|----1-----------1---1---1---1--|
D|--------2-------2---2-------2--|----2-----------2---2---2---2--|
A|--------2-------2---2-------2--|----2-----------2---2---2---2--|
E|--------0-------0---0-------0--|----0-----------0---0---0---0--|
Tried to please her,



e|------- ------- ------- -------|------- ------- ------- -------|
B|-------------------------------|-------------------------------|
G|-------------------------------|-------------------------------|
D|------------------------2---0--|------------4-----------0---2--|
A|--------------------2----------|--------2-----------2----------|
E|0----------3----4--------------|-------------------------------|
She only played one night stands
e|------- 0------ ----0-- ----0--|----0-- 0------ 0---0-- 0---0--|
B|--------0-----------0-------0--|----0---0-------0---0---0---0--|
G|--------1-----------1-------1--|----1---1-------1---1---1---1--|
D|--------2-----------2-------2--|----2---2-------2---2---2---2--|
A|--------2-----------2-------2--|----2---2-------2---2---2---2--|
E|--------0-----------0-------0--|----0---0-------0---0---0---0--|




e|------- ------- ------- -------|------- ------- ------- -------|
B|-------------------------------|-------------------------------|
G|------------------------2---0--|------------4-----------0---2--|
D|--------------------2----------|--------2-----------2----------|
A|0-----------3---4--------------|-------------------------------|
E|-------------------------------|-------------------------------|
A
e|0------ 0------ 0---0-- 0---0--|----0-- 0------ 0---0-- 0---0--|
B|2-------2-------2---2---2---2--|----2---2-------2---2---2---2--|
G|2-------2-------2---2---2---2--|----2---2-------2---2---2---2--|
D|2-------2-------2---2---2---2--|----2---2-------2---2---2---2--|
A|0-------0-------0---0---0---0--|----0---0-------0---0---0---0--|
E|-------------------------------|-------------------------------|
Tried to please her,


e|------- ------- ------- -------|------- ------- ------- -------|
B|-------------------------------|-------------------------------|
G|-------------------------------|-------------------------------|
D|------------------------2---0--|------------4-----------0---2--|
A|--------------------2----------|--------2-----------2----------|
E|0----------3----4--------------|-------------------------------|
E
e|------- 0------ 0---0-- ----0--|----0-- ------- 0---0-- 0---0--|
B|--------0-------0---0-------0--|----0-----------0---0---0---0--|
G|--------1-------1---1-------1--|----1-----------1---1---1---1--|
D|--------2-------2---2-------2--|----2-----------2---2---2---2--|
A|--------2-------2---2-------2--|----2-----------2---2---2---2--|
E|--------0-------0---0-------0--|----0-----------0---0---0---0--|
She only played one night stands now She was a



e|------- ------- ------- -------|------- ------- ------- -------|
B|-------------------------------|-------------------------------|
G|-------------------------------|-------------------------------|
D|-------------------------------|--------4---4---4--------------|
A|-------------------------------|--------4---4---4-------3\2-0--|
E|-------------------------------|0-/-2---2---2---2--------------|
F#7
e|------- 2------ 2---2-- 2---2--|------- 2------ 2---2-- 2---2--|
B|--------5-------5---5---5---5--|--------5-------5---5---5---5--|
G|--------3-------3---3---3---3--|--------3-------3---3---3---3--|
D|--------2-------2---2---2---2--|--------2-------2---2---2---2--|
A|--------4-------4---4---4---4--|--------4-------4---4---4---4--|
E|--------2-------2---2---2---2--|--------2-------2---2---2---2--|
daaaaaaaaaaaaaaaaaaaaaaaaaaaaay tripper a



e|------- ------- ------- -------|------- ------- ------- -------|
B|-------------------------------|-------------------------------|
G|-------------------------------|-------------------------------|
D|-------------------------------|--------4---4---4---4---4---4-/|
A|-------------------------------|--------4---4---4---4---4---4-/|
E|-------------------------------|0H2-----2---2---2---2---2---2-/|

e|------- 2------ 2---2-- 2---2--|2------ 2------ 2---2-- 2---2--|
B|--------5-------5---5---5---5--|5-------5-------5---5---5---5--|
G|--------3-------3---3---3---3--|3-------3-------3---3---3---3--|
D|--------2-------2---2---2---2--|2-------2-------2---2---2---2--|
A|--------4-------4---4---4---4--|4-------4-------4---4---4---4--|
E|--------2-------2---2---2---2--|2-------2-------2---2---2---2--|
sunday driver, yeah It took me



e|------- ------- ------- -------|------- ------- ------- -------|
B|-------------------------------|-------------------------------|
G|-------------------------------|-------------------------------|
D|7---7---7---7---7---7---7------|6---6---6---6---6---6---6----/-|
A|7---7---7---7---7---7---7------|6---6---6---6---6---6---6----/-|
E|5---5---5---5---5---5---5------|4---4---4---4---4---4---4----/-|
A7 G#7
e|5------ 5------ 5---5-- 5---5--|4------ 4------ 4---4-- 4---4--|
B|8-------8-------8---8---8---8--|7-------7-------7---7---7---7--|
G|6-------6-------6---6---6---6--|5-------5-------5---5---5---5--|
D|5-------5-------5---5---5---5--|4-------4-------4---4---4---4--|
A|7-------7-------7---7---7---7--|6-------6-------6---6---6---6--|
E|5-------5-------5---5---5---5--|4-------4-------4---4---4---4--|
sooooooooooooooooooooooooooooo long to find out


e|------- ------- ------- -------|------- ------- ------- -------|
B|-------------------------------|-------------------------------|
G|-------------------------------|-------------------------------|
D|11------11--11--11--11--11--11-|9-------9---9---9---9---9---9--|
A|11------11--11--11--11--11--11-|9-------9---9---9---9---9---9--|
E|-9-------9---9---9---9---9---9-|7-------7---7---7---7---7---7--|
C#7 B7
e|-9----- -9----- -9----- -9---9-|-7----- -7----- -7---7- -7---7-|
B|12------12------12------12--12-|10------10------10--10--10--10-|
G|10------10------10------10--10-|-8-------8-------8---8---8---8-|
D|-9-------9-------9-------9---9-|-7-------7-------7---7---7---7-|
A|11------11------11------11--11-|-9-------9-------9---9---9---9-|
E|-9-------9-------9-------9---9-|-7-------7-------7---7---7---7-|
and I found out



e|------- ------- ------- -------|------- ------- ------- -------|
B|-------------------------------|-------------------------------|
G|-------------------------------|-------------------------------|
D|------------------------2---0--|------------4-----------0---2--|
A|--------------------2----------|--------2-----------2----------|
E|0----------3----4--------------|-------------------------------|



e|------- ------- ------- -------|------- ------- ------- -------|
B|-------------------------------|-------------------------------|
G|-------------------------------|-------------------------------|
D|------------------------2---0--|------------4-----------0---2--|
A|--------------------2----------|--------2-----------2----------|
E|0----------3----4--------------|-------------------------------|
E
e|------- ------- ------- -------|------- ------- ------- ----0--|
B|-------------------------------|----------------------------0--|
G|-------------------------------|----------------------------1--|
D|-------------------------------|----------------------------2--|
A|-------------------------------|----------------------------2--|
E|-------------------------------|----------------------------0--|



e|------- ------- ------- -------|------- ------- ------- -------|
B|-------------------------------|-------------------------------|
G|-------------------------------|-------------------------------|
D|------------------------2---0--|------------4-----------0---2--|
A|--------------------2----------|--------2-----------2----------|
E|0----------3----4--------------|-------------------------------|

e|0------ 0------ 0---0-- ----0--|----0-- 0------ 0------ 0---0--|
B|0-------0-------0---0-------0--|----0---0-------0-------0---0--|
G|1-------1-------1---1-------1--|----1---1-------1-------1---1--|
D|2-------2-------2---2-------2--|----2---2-------2-------2---2--|
A|2-------2-------2---2-------2--|----2---2-------2-------2---2--|
E|0-------0-------0---0-------0--|----0---0-------0-------0---0--|



e|------- ------- ------- -------|------- ------- ------- -------|
B|-------------------------------|-------------------------------|
G|-------------------------------|-------------------------------|
D|------------------------2---0--|------------4-----------0---2--|
A|--------------------2----------|--------2-----------2----------|
E|0----------3----4--------------|-------------------------------|

e|0------ 0------ 0---0-- 0---0--|----0-- 0------ 0---0-- 0---0--|
B|0-------0-------0---0---0---0--|----0---0-------0---0---0---0--|
G|1-------1-------1---1---1---1--|----1---1-------1---1---1---1--|
D|2-------2-------2---2---2---2--|----2---2-------2---2---2---2--|
A|2-------2-------2---2---2---2--|----2---2-------2---2---2---2--|
E|0-------0-------0---0---0---0--|----0---0-------0---0---0---0--|




e|------- ------- ------- -------|------- ------- ------- -------|
B|-------------------------------|-------------------------------|
G|-------------------------------|-------------------------------|
D|------------------------2---0--|------------4-----------0---2--|
A|--------------------2----------|--------2-----------2----------|
E|0----------3----4--------------|-------------------------------|

e|------- 0------ ----0-- ----0--|----0-- 0------ 0---0-- 0---0--|
B|--------0-----------0-------0--|----0---0-------0---0---0---0--|
G|--------1-----------1-------1--|----1---1-------1---1---1---1--|
D|--------2-----------2-------2--|----2---2-------2---2---2---2--|
A|--------2-----------2-------2--|----2---2-------2---2---2---2--|
E|--------0-----------0-------0--|----0---0-------0---0---0---0--|
Day tripper


e|------- ------- ------- -------|------- ------- ------- -------|
B|-------------------------------|-------------------------------|
G|-------------------------------|-------------------------------|
D|------------------------2---0--|------------4-----------0---2--|
A|--------------------2----------|--------2-----------2----------|
E|0----------3----4--------------|-------------------------------|

e|------- 0------ 0---0-- ----0--|----0-- 0------ 0---0-- 0---0--|
B|--------0-------0---0-------0--|----0---0-------0---0---0---0--|
G|--------1-------1---1-------1--|----1---1-------1---1---1---1--|
D|--------2-------2---2-------2--|----2---2-------2---2---2---2--|
A|--------2-------2---2-------2--|----2---2-------2---2---2---2--|
E|--------0-------0---0-------0--|----0---0-------0---0---0---0--|
Day tripper, yeah



e|------- ------- ------- -------|------- ------- ------- -------|
B|-------------------------------|-------------------------------|
G|-------------------------------|-------------------------------|
D|------------------------2---0--|------------4-----------0---2--|
A|--------------------2----------|--------2-----------2----------|
E|0----------3----4--------------|-------------------------------|

e|0------ 0------ ----0-- ----0--|----0-- ----0-- ----0-- 0---0--|
B|0-------0-----------0-------0--|----0-------0-------0---0---0--|
G|1-------1-----------1-------1--|----1-------1-------1---1---1--|
D|2-------2-----------2-------2--|----2-------2-------2---2---2--|
A|2-------2-----------2-------2--|----2-------2-------2---2---2--|
E|0-------0-----------0-------0--|----0-------0-------0---0---0--|
Day tripper


e|------- ------- ------- -------|------- ------- ------- -------|
B|-------------------------------|-------------------------------|
G|-------------------------------|-------------------------------|
D|------------------------2---0--|------------4-----------0---2--|
A|--------------------2----------|--------2-----------2----------|
E|0----------3----4--------------|-------------------------------|

e|0------ 0------ 0---0-- ----0--|----0-- 0------ 0---0-- 0---0--|
B|0-------0-------0---0-------0--|----0---0-------0---0---0---0--|
G|1-------1-------1---1-------1--|----1---1-------1---1---1---1--|
D|2-------2-------2---2-------2--|----2---2-------2---2---2---2--|
A|2-------2-------2---2-------2--|----2---2-------2---2---2---2--|
E|0-------0-------0---0-------0--|----0---0-------0---0---0---0--|
Day tripper, yeah
.............................Fade..............................


e|------- ------- ------- -------|------- ------- ------- -------|
B|-------------------------------|-------------------------------|
G|-------------------------------|-------------------------------|
D|------------------------2---0--|------------4-----------0---2--|
A|--------------------2----------|--------2-----------2----------|
E|0----------3----4--------------|-------------------------------|

e|------- 0------ ----0-- ----0--|----0-- 0------ ----0-- ----0--|
B|--------0-----------0-------0--|----0---0-----------0-------0--|
G|--------1-----------1-------1--|----1---1-----------1-------1--|
D|--------2-----------2-------2--|----2---2-----------2-------2--|
A|--------2-----------2-------2--|----2---2-----------2-------2--|
E|--------0-----------0-------0--|----0---0-----------0-------0--|
Day tripper
...............................................................







B Bend
R Release
/ slide up
\ slide down
H hammer-on
P pull-off
~ vibrato
+ harmonic
x Mute note
. - play note like a dot in standard notation
^ - ties two notes together

pjvill

Submitted by pjvill at Sat 03 Dec, 2005 12:07 pm

Author: ?
Composer: ?
Publisher: ?
Language: English

Reactions

CommonCrawl [Bot]

Follow Muzikum