The Beatles

The Beatles
Come Together Ver 5 (Guitar tab)

-------------------------------------------------------------------
THE BEATLES - COME TOGETHER (Lennon/McCartney). From ABBEY ROAD
album. Released on 26th September 1969.

-------------------------------------------------------------------

Tabbed by:PJVillanueva






Here come old flattop he come grooving up slowly
He got joo-joo eyeball he one holly roller
He got hair down to his knee
Got to be a joker he just do what he please

He wear no shoeshine he got toe-jam football
He got monkey finger he shoot coca-cola
He say "I know you, you know me"
One thing I can tell you is you got to be free
Come together right now over me

He bag production he got walrus gumboot
He got Ono sideboard he one spinal cracker
He got feet down below his knee
Hold you in his armchair you can feel his disease
Come together right now over me

He roller-coaster he got early warning
He got muddy water he one mojo filter
He say "One and one and one is three"
Got to be good-looking 'cause he's so hard to see
Come together right now over me







e|------- ------- ------- -------|------- ------- ------- -------|
B|-------------------------------|-------------------------------|
G|------------5------------------|----------------5--------------|
D|--------5H7--------------------|--------5H7--------------------|
A|5---5--------------------------|5---5--------------------------|
E|-------------------------------|-------------------------------|
Shoot me Shoot me




e|------- ------- ------- -------|------- ------- ------- -------|
B|-------------------------------|-------------------------------|
G|------------5------------------|----------------5--------------|
D|--------5H7--------------------|--------5H7--------------------|
A|5---5--------------------------|5---5--------------------------|
E|-------------------------------|-------------------------------|
Shoot me Shoot me




e|------- ------- ------- -------|------- ------- ------- -------|
B|-------------------------------|-------------------------------|
G|-------------------------------|-------------------------------|
D|7---7---9---9---7---7---9---9--|7---7---9---9---7---7---9---9--|
A|5---5---5---5---5---5---5---5--|5---5---5---5---5---5---5---5--|
E|-------------------------------|-------------------------------|
Here come old flattop he come grooving up slowly He got




e|------- ------- ------- -------|------- ------- ------- -------|
B|-------------------------------|-------------------------------|
G|-------------------------------|-------------------------------|
D|7---7---9---9---7---7---9---9--|7---7---9---9---7---7---9---9--|
A|5---5---5---5---5---5---5---5--|5---5---5---5---5---5---5---5--|
E|-------------------------------|-------------------------------|
joo - joo eyeball he one holly roller He got




e|------- ------- ------- -------|------- ------- ------- -------|
B|-------------------------------|-------------------------------|
G|-------------------------------|-------------------------------|
D|-------------------------------|-------------------------------|
A|7---7---9---9---7---7---9---9--|7---7---9---9---7---7---7---7-\|
E|5---5---5---5---5---5---5---5--|5---5---5---5---5---5---5---5-\|
hair down to his knee


X X X X X X X X X X X X

e|------- ------- ------- -------|------- ------- ------- -------|
B|-------------------------------|-------------------------------|
G|-------------------------------|-------------------------------|
D|-------------------------------|-------------------------------|
A|5------------------------------|-------------------------------|
E|3------------------------------|-------------------------------|
Got to be a joker he just do what he please




e|------- ------- ------- -------|------- ------- ------- -------|
B|-------------------------------|-------------------------------|
G|------------5------------------|----------------5--------------|
D|--------5H7--------------------|--------5H7--------------------|
A|5---5--------------------------|5---5--------------------------|
E|-------------------------------|-------------------------------|
Shoot me Shoot me




e|------- ------- ------- -------|------- ------- ------- -------|
B|-------------------------------|-------------------------------|
G|------------5------------------|----------------5--------------|
D|--------5H7--------------------|--------5H7--------------------|
A|5---5--------------------------|5---5--------------------------|
E|-------------------------------|-------------------------------|
Shoot me Shoot me




e|------- ------- ------- -------|------- ------- ------- -------|
B|-------------------------------|-------------------------------|
G|-------------------------------|-------------------------------|
D|7---7---9---9---7---7---9---9--|7---7---9---9---7---7---9---9--|
A|5---5---5---5---5---5---5---5--|5---5---5---5---5---5---5---5--|
E|-------------------------------|-------------------------------|
He wear no shoeshine he got toe - jam football He got



e|------- ------- ------- -------|------- ------- ------- -------|
B|-------------------------------|-------------------------------|
G|-------------------------------|-------------------------------|
D|7---7---9---9---7---7---9---9--|7---7---9---9---7---7---9---7--|
A|5---5---5---5---5---5---5---5--|5---5---5---5---5---5---5---5--|
E|-------------------------------|-------------------------------|
monkey finger he shoot coca - cola He say



e|------- ------- ------- -------|------- ------- ------- -------|
B|-------------------------------|-------------------------------|
G|-------------------------------|-------------------------------|
D|-------------------------------|-------------------------------|
A|7---7---9---9---7---7---9---9--|7---7---9---9---7---7---9---7--|
E|5---5---5---5---5---5---5---5--|5---5---5---5---5---5---5---5--|
"I know you, you know me"


X X X X X X X X X X X X

e|------- ------- ------- -------|------- ------- ------- -------|
B|-------------------------------|-------------------------------|
G|-------------------------------|-------------------------------|
D|-------------------------------|-------------------------------|
A|5------------------------------|-------------------------------|
E|3------------------------------|-------------------------------|
One thing I can tell you is you got to be free Come together



e|------- ------- ------- -------|------- ------- ------- -------|
B|-------------------------------|-------------------------------|
G|-------------------------------|-------------------------------|
D|9---9---9---9---9---9----------|-------------------------------|
A|9---9---9---9---9---9---9---9--|5---5---5---5-/-7--------------|
E|7---7---7---7---7---7---5---5--|3---3---3---3-/-5--------------|
right now over me




e|------- ------- ------- -------|------- ------- ------- -------|
B|-------------------------------|-------------------------------|
G|------------5------------------|----------------5--------------|
D|--------5H7--------------------|--------5H7--------------------|
A|5---5--------------------------|5---5--------------------------|
E|-------------------------------|-------------------------------|
Shoot me Shoot me




e|------- ------- ------- -------|------- ------- ------- -------|
B|-------------------------------|-------------------------------|
G|------------5------------------|----------------5--------------|
D|--------5H7--------------------|--------5H7--------------------|
A|5---5--------------------------|5---5--------------------------|
E|-------------------------------|-------------------------------|
Shoot me Shoot me




e|------- ------- ------- -------|------- ------- ------- -------|
B|-------------------------------|-------------------------------|
G|-------------------------------|-------------------------------|
D|7---7---9---9---7---7---9---9--|7---7---9---9---7---7---9---9--|
A|5---5---5---5---5---5---5---5--|5---5---5---5---5---5---5---5--|
E|-------------------------------|-------------------------------|
He bag production he got walrus gumboot He got




e|------- ------- ------- -------|------- ------- ------- -------|
B|-------------------------------|-------------------------------|
G|-------------------------------|-------------------------------|
D|7---7---9---9---7---7---9---9--|7---7---9---9---7---7---9---7-\|
A|5---5---5---5---5---5---5---5--|5---5---5---5---5---5---5---5-\|
E|-------------------------------|-------------------------------|
Ono sideboard he one spinal cracker He got




e|------- ------- ------- -------|------- ------- ------- -------|
B|-------------------------------|-------------------------------|
G|-------------------------------|-------------------------------|
D|-------------------------------|-------------------------------|
A|7---7---9---9---7---7---9---9--|7---7---9---9---7---7---9---7-\|
E|5---5---5---5---5---5---5---5--|5---5---5---5---5---5---5---5-\|
feet down below his knee


X X X X X X X X X X X X

e|------- ------- ------- -------|------- ------- ------- -------|
B|-------------------------------|-------------------------------|
G|-------------------------------|-------------------------------|
D|-------------------------------|-------------------------------|
A|5------------------------------|-------------------------------|
E|3------------------------------|-------------------------------|
Hold you in his armchair you can feel his disease Come together




e|------- ------- ------- -------|------- ------- ------- -------|
B|-------------------------------|-------------------------------|
G|-------------------------------|-------------------------------|
D|9---9---9---9---9---9----------|-------------------------------|
A|9---9---9---9---9---9---9---9--|5---5---5---5-/-7--------------|
E|7---7---7---7---7---7---5---5--|3---3---3---3-/-5--------------|
right now over me


xxxxx x x X X X X

e|------- ------- ------- -------|------- ------- ------- -------|
B|-------------------------------|-------------------------------|
G|------------5------------------|----------------5--------------|
D|--------5H7--------------------|--------5H7--------------------|
A|5---5--------------------------|5---5--------------------------|
E|-------------------------------|-------------------------------|
Shoot me
e|------- ------- ------- -------|------- ------- ------- -------|
B|------------6------------------|----------------6--------------|
G|------------5------------------|----------------5--------------|
D|------------7------------------|----------------7--------------|
A|-------------------------------|-------------------------------|
E|-------------------------------|-------------------------------|





e|------- ------- ------- -------|------- ------- ------- -------|
B|-------------------------------|-------------------------------|
G|-------------------------------|-------------------------------|
D|7---7---9---9---7---7---9---9--|7---7---9---9---7---7---9---9--|
A|5---5---5---5---5---5---5---5--|5---5---5---5---5---5---5---5--|
E|-------------------------------|-------------------------------|

e|------- ------- ------- -------|------- ------- ------- -------|
B|----6-6-6-6-6-6-6--------------|----6-6-6-6-6-6-6--------------|
G|----5-5-5-5-5-5-5---7---5---7--|----5-5-5-5-5-5-5---7---5---7--|
D|--------------------7---5---7--|--------------------7---5---7--|
A|-------------------------------|-------------------------------|
E|-------------------------------|-------------------------------|





e|------- ------- ------- -------|------- ------- ------- -------|
B|-------------------------------|-------------------------------|
G|-------------------------------|-------------------------------|
D|7---7---9---9---7---7---9---9--|7---7---9---9---7---7---9---7-\|
A|5---5---5---5---5---5---5---5--|5---5---5---5---5---5---5---5-\|
E|-------------------------------|-------------------------------|
Come
e|------- ------- ------- -------|------- ------- ------- -------|
B|----6-6-6-6-6-6-6--------------|--6-6-6-6-6-6-6----------------|
G|----5-5-5-5-5-5-5---7---5---7--|--5-5-5-5-5-5-5-----7---5---7--|
D|--------------------7---5---7--|--------------------7---5---7--|
A|-------------------------------|-------------------------------|
E|-------------------------------|-------------------------------|





e|------- ------- ------- -------|------- ------- ------- -------|
B|-------------------------------|-------------------------------|
G|-------------------------------|-------------------------------|
D|-------------------------------|-------------------------------|
A|7---7---9---9---7---7---9---9--|7---7---9---9---7---7---9---9--|
E|5---5---5---5---5---5---5---5--|5---5---5---5---5---5---5---5--|
Oh, Come
e|------- ------- ------- -------|------- ------- ------- -------|
B|--------5----------------------|--------5----------------------|
G|--------6----------------------|--------6----------------------|
D|--------7----------------------|--------7----------------------|
A|7---7---7----------------------|7---7---7----------------------|
E|5---5---5----------------------|5---5---5----------------------|
B B B R P B
e|------- ------- ------- -------|------- ------- ------- -------|
B|1517-~--------------1517151715131517-~-------------------------|
G|-------------------------------|-------------------------------|
D|-------------------------------|-------------------------------|
A|-------------------------------|-------------------------------|
E|-------------------------------|-------------------------------|
B B B R P B
e|1517-~- ------- ----1517151715131517-~- ------- ------- -------|
B|-------------------------------|-------------------------------|
G|-------------------------------|-------------------------------|
D|-------------------------------|-------------------------------|
A|-------------------------------|-------------------------------|
E|-------------------------------|-------------------------------|





e|------- ------- ------- -------|------- ------- ------- -------|
B|-------------------------------|-------------------------------|
G|-------------------------------|-------------------------------|
D|-------------------------------|-------------------------------|
A|7---7---9---9---7---7---9---9--|7---7---9---9---7---7----------|
E|5---5---5---5---5---5---5---5--|5---5---5---5---5---5----------|
Come Come
e|------- ------- ------- -------|------- ------- ------- -------|
B|--------5----------------------|--------5----------------------|
G|--------6----------------------|--------6----------------------|
D|--------7----------------------|--------7----------------------|
A|7---7---7----------------------|7---7---7----------------------|
E|5---5---5----------------------|5---5---5----------------------|
B B B R P
e|------- ------- ------- -------|------- ------- ------- -------|
B|1517-~--------------151715171513-B-------------------B---B-R-P-|
G|-------------------------------|1214-~--------------121412141210
D|-------------------------------|-------------------------------|
A|-------------------------------|-------------------------------|
E|-------------------------------|-------------------------------|
B B B R P
e|1517-~- ------- ----151715171513--B---- ------- -----B- -B-R-P-|
B|-------------------------------|1517-~--------------151715171514
G|-------------------------------|-------------------------------|
D|-------------------------------|-------------------------------|
A|-------------------------------|-------------------------------|
E|-------------------------------|-------------------------------|




B
e|------- ------- ------- -------|------- ------- ------- -------|
B|1315-~-------------------------|-------------------------------|
G|-------------------------------|-------------------------------|
D|-------------------------------|-------------------------------|
A|-------------------------------|-------------------------------|
E|-------------------------------|-------------------------------|
B
e|1517-~- ------- ------- -------|------- ------- ------- -------|
B|-------------------------------|-------------------------------|
G|-------------------------------|-------------------------------|
D|-------------------------------|-------------------------------|
A|-------------------------------|-------------------------------|
E|-------------------------------|-------------------------------|

e|------- ------- ------- -------|------- ------- ------- -------|
B|-------------------------------|-------------------------------|
G|------------5------------------|----------------5--------------|
D|--------5H7--------------------|--------5H7--------------------|
A|5---5--------------------------|5---5--------------------------|
E|-------------------------------|-------------------------------|

e|------- ------- ------- -------|------- ------- ------- -------|
B|--------6---3-----------1------|----0--------------------------|
G|--------5---4-----------2------|----0-----------2--------------|
D|----0---------------0----------|0---------------3--------------|
A|-------------------------------|------------5------------------|
E|-------------------------------|-------------------------------|





e|------- ------- ------- -------|------- ------- ------- -------|
B|-------------------------------|-------------------------------|
G|----------------------------7--|----------------------------5--|
D|7---7---9---9---7---7---7/9----|7---7---9---9---7---7---5H7----|
A|5---5---5---5---5---5----------|5---5---5---5---5---5---5------|
E|-------------------------------|-------------------------------|
He roller-coaster he got early warning He got



e|------- ------- ------- -------|------- ------- ------- -------|
B|----------------------------6--|-------------------------------|
G|----------------------------5--|7---7--------------------------|
D|7---7---9---9---7---7---5H7----|7---7---9---9---7---7---5H7-\--|
A|5---5---5---5---5---5---5------|5---5---5---5---5---5---5------|
E|-------------------------------|-------------------------------|
muddy water he one mojo filter He say



e|------- ------- ------- -------|------- ------- ------- -------|
B|-------------------------------|-------------------------------|
G|-------------------------------|-------------------------------|
D|-------------------------------|-------------------------------|
A|7---7---9---9---7---7---5-\----|7---7---9---9---7---7---5H7-7-\|
E|5---5---5---5---5---5---5-\----|5---5---5---5---5---5---5---5-\|
"One and one and one is three"


X X X X X X X X X X X X

e|------- ------- ------- -------|------- ------- ------- -------|
B|-------------------------------|-------------------------------|
G|-------------------------------|-------------------------------|
D|-------------------------------|-------------------------------|
A|5------------------------------|-------------------------------|
E|3------------------------------|-------------------------------|
Got to be good-looking 'cause he's so hard to see Come together



e|------- ------- ------- -------|------- ------- ------- -------|
B|-------------------------------|-------------------------------|
G|-------------------------------|-------------------------------|
D|9---9---9---9---9---9----------|-------------------------------|
A|9---9---9---9---9---9---9---5--|5---5---5---5-/-7--------------|
E|7---7---7---7---7---7---5---5--|3---3---3---3-/-5--------------|
right now over me




e|------- ------- ------- -------|------- ------- ------- -------|
B|-------------------------------|-------------------------------|
G|------------5------------------|----------------5--------------|
D|--------5H7--------------------|--------5H7--------------------|
A|5---5--------------------------|5---5--------------------------|
E|-------------------------------|-------------------------------|
Shoot me
e|------- ------- ------- -------|------- ------- ------- -------|
B|------------6------------------|----------------6--------------|
G|------------5------------------|----------------5--------------|
D|------------7------------------|----------------7--------------|
A|-------------------------------|-------------------------------|
E|-------------------------------|-------------------------------|





e|------- ------- ------- -------|------- ------- ------- -------|
B|-------------------------------|-------------------------------|
G|------------5------------------|----------------5--------------|
D|--------5H7--------------------|--------5H7--------------------|
A|5---5--------------------------|5---5--------------------------|
E|-------------------------------|-------------------------------|
Shoot me Shoot me Oh!
e|------- ------- ------- -------|------- ------- ------- -------|
B|------------6------------------|----------------6--------------|
G|------------5------------------|----------------5--------------|
D|------------7------------------|----------------7--------------|
A|-------------------------------|-------------------------------|
E|-------------------------------|-------------------------------|

e|------- ------- ------- -------|------- ------- ------- -------|
B|-------------------------------|-------------------------------|
G|-------------------------------|-------------------------------|
D|------------------------12-----|-------------------------------|
A|-------------------------------|-------------------------------|
E|-------------------------------|-------------------------------|





e|------- ------- ------- -------|------- ------- ------- -------|
B|-------------------------------|----------------------------6--|
G|----------------------------5--|----------------------------5--|
D|7---7---9---9---7---7---5H7-7--|7---7---9---9---7---7---5H7-7--|
A|5---5---5---5---5---5---5------|5---5---5---5---5---5---5------|
E|-------------------------------|-------------------------------|

e|------- ------- ------- -------|------- ------- ------- -------|
B|--------6---3-----------1------|----0--------------------------|
G|--------5---4-----------2------|----0-----------2--------------|
D|----0---------------0----------|0---------------3--------------|
A|-------------------------------|------------5------------------|
E|-------------------------------|-------------------------------|
B B R
e|------- ------- ------- -------|------- ------- ----1315131513-|
B|13B15-~------------------------|------------------------------15
G|-------------------------------|-------------------------------|
D|-------------------------------|-------------------------------|
A|-------------------------------|-------------------------------|
E|-------------------------------|-------------------------------|





e|------- ------- ------- -------|------- ------- ------- -------|
B|----------------------------6--|-------------------------------|
G|----------------------------5--|----------------------------5--|
D|7---7---9---9---7---7---5H7-7--|7---7---9---9---7---7---5H7-7--|
A|5---5---5---5---5---5---5------|5---5---5---5---5---5---5------|
E|-------------------------------|-------------------------------|
Come together Yeah
e|------- ------- ------- -------|------- ------- ------- -------|
B|--------6---3-----------1------|----0--------------------------|
G|--------5---4-----------2------|----0-----------2--------------|
D|----0---------------0----------|0---------------3--------------|
A|-------------------------------|------------5------------------|
E|-------------------------------|-------------------------------|

e|------- ------- ------- -------|------- ------- ------- -------|
B|13B15-~------------------------|-------------------------------|
G|-------------------------------|--------------------10-B13R12P10
D|-------------------------------|-------------------------------|
A|-------------------------------|-------------------------------|
E|-------------------------------|-------------------------------|





e|------- ------- ------- -------|------- ------- ------- -------|
B|-------------------------------|-------------------------------|
G|--------------------------5----|--------------------------7----|
D|7---7---9---9---7---7-5H7---5H7|7---7---9---9---7---7-7/9---9\7|
A|5---5---5---5---5---5-5-----5--|5---5---5---5---5---5----------|
E|-------------------------------|-------------------------------|
Come together Yeah
e|------- ------- ------- -------|------- ------- ------- -------|
B|--------6---3-----------1------|----0--------------------------|
G|--------5---4-----------2------|----0-----------2--------------|
D|----0---------------0----------|0---------------3--------------|
A|-------------------------------|------------5------------------|
E|-------------------------------|-------------------------------|

B R
e|------- ------- ------- -------|------- ------- ------- 131513-|
B|13B15-~------------------------|--------------------15--------15
G|-------------------------------|-------------------------------|
D|-------------------------------|-------------------------------|
A|-------------------------------|-------------------------------|
E|-------------------------------|-------------------------------|





e|------- ------- ------- -------|------- ------- ------- -------|
B|-------------------------------|-------------------------------|
G|--------------------------7-7--|--------------------------7----|
D|7---7---9---9---7---7-7/9---9\7|7---7---9---9---7---7-7/9--9\7-|
A|5---5---5---5---5---5-5--------|5---5---5---5---5---5----------|
E|-------------------------------|-------------------------------|
Come together Yeah
e|------- ------- ------- -------|------- ------- ------- -------|
B|--------6---3-----------1------|----0--------------------------|
G|--------5---4-----------2------|----0-----------2-----------2--|
D|----0---------------0----------|0---------------3-----------3--|
A|-------------------------------|------------5---------------5--|
E|-------------------------------|-------------------------------|

e|------- ------- ------- -------|------- ------- ------- -------|
B|13B15-~------------------------|-------------------------------|
G|-------------------------------|-------------------14--B19R17P14
D|-------------------------------|-------------------------------|
A|-------------------------------|-------------------------------|
E|-------------------------------|-------------------------------|





e|------- ------- ------- -------|------- ------- ------- -------|
B|--------------------------8----|--------------------------6-6--|
G|--------------------------7-7--|--------------------------5-5--|
D|7---7---9---9---7---7-7/9---9\7|7---7---9---9---7---7-5H7---7--|
A|5---5---5---5---5---5----------|5---5---5---5---5---5-5--------|
E|-------------------------------|-------------------------------|
Come together Yeah
e|------- ------- ------- -------|------- ------- ------- -------|
B|--------6---3-----------1------|----0--------------------------|
G|--------5---4-----------2------|----0-----------2-----------2--|
D|----0---------------0----------|0---------------3-----------3--|
A|-------------------------------|------------5---------------5--|
E|-------------------------------|-------------------------------|
B B R P
e|15B17-~ ------- ------- -------|------- ------- ----151715171513
B|-------------------------------|-------------------------------|
G|-------------------------------|-------------------------------|
D|-------------------------------|-------------------------------|
A|-------------------------------|-------------------------------|
E|-------------------------------|-------------------------------|





e|------- ------- ------- -------|------- ------- ------- -------|
B|-------------------------------|-------------------------------|
G|--------------------------5----|--------------------------5----|
D|7---7---9---9---7---7-5H7------|7---7---9---9---7---7-5H7---7--|
A|5---5---5---5---5---5-5--------|5---5---5---5---5---5-5-----5--|
E|-------------------------------|-------------------------------|
Come together Yeah
e|------- ------- ------- -------|------- ------- ------- -------|
B|--------6---3-----------1------|----0--------------------------|
G|--------5---4-----------2------|----0-----------2-----------2--|
D|----0---------------0----------|0---------------3-----------3--|
A|-------------------------------|------------5---------------5--|
E|-------------------------------|-------------------------------|
B R
e|15B17-~ ------- ------- -------|------- ------- ----17- 202220-|
B|-------------------------------|-------------------------------|
G|-------------------------------|-------------------------------|
D|-------------------------------|-------------------------------|
A|-------------------------------|-------------------------------|
E|-------------------------------|-------------------------------|





e|------- ------- ------- -------|------- ------- ------- -------|
B|-------------------------------|----------------------------6--|
G|--------------------------5----|--------------------------5-5--|
D|7---7---9---9---7---7-5H7-7-7--|7---7---9---9---7---7-5H7------|
A|5---5---5---5---5---5-5-----5--|5---5---5---5---5---5-5--------|
E|-------------------------------|-------------------------------|
Come together Yeah
e|------- ------- ------- -------|------- ------- ------- -------|
B|--------6---3-----------1------|----0--------------------------|
G|--------5---4-----------2------|----0-----------2--------------|
D|----0---------------0----------|0---------------3--------------|
A|-------------------------------|------------5------------------|
E|-------------------------------|-------------------------------|
B R P
e|20B22-~ ------- ------- -------|------- ------- ----17- 20222017
B|-------------------------------|-------------------------------|
G|-------------------------------|-------------------------------|
D|-------------------------------|-------------------------------|
A|-------------------------------|-------------------------------|
E|-------------------------------|-------------------------------|





e|------- ------- ------- -------|------- ------- ------- -------|
B|--------------------------6-6--|--------------------------6-6--|
G|--------------------------5-5--|--------------------------5-5--|
D|7---7---9---9---7---7-5H7------|7---7---9---9---7---7-5H7------|
A|5---5---5---5---5---5-5--------|5---5---5---5---5---5-5--------|
E|-------------------------------|-------------------------------|
Come together Yeah
e|------- ------- ------- -------|------- ------- ------- -------|
B|--------6---3-----------1------|----0--------------------------|
G|--------5---4-----------2------|----0-----------2--------------|
D|----0---------------0----------|0---------------3--------------|
A|-------------------------------|------------5------------------|
E|-------------------------------|-------------------------------|
B R P
e|20B22-~ ------- ------- -------|------- ------- ---13-- 15161513
B|-------------------------------|-------------------------------|
G|-------------------------------|-------------------------------|
D|-------------------------------|-------------------------------|
A|-------------------------------|-------------------------------|
E|-------------------------------|-------------------------------|





e|------- ------- ------- -------|------- ------- ------- -------|
B|--------------------------6-6--|-------------------------------|
G|--------------------------5-5--|-------------------------------|
D|7---7---9---9---7---7-5H7------|7---7---9---9---7---7-5H7-7-7--|
A|5---5---5---5---5---5-5--------|5---5---5---5---5---5-5-----5--|
E|-------------------------------|-------------------------------|
Ah!
e|------- ------- ------- -------|------- ------- ------- -------|
B|--------6---3-----------1------|----0--------------------------|
G|--------5---4-----------2------|----0-----------2--------------|
D|----0---------------0----------|0---------------3--------------|
A|-------------------------------|------------5------------------|
E|-------------------------------|-------------------------------|

e|15B17-~ ------- ------- -------|------- ------- ------- -------|
B|-------------------------------|-------------------------------|
G|-------------------------------|--------------------10-B13R12P10
D|-------------------------------|-------------------------------|
A|-------------------------------|-------------------------------|
E|-------------------------------|-------------------------------|





e|------- ------- ------- -------|------- ------- ------- -------|
B|--------------------------8----|--------------------------8----|
G|--------------------------7-7--|--------------------------7-7--|
D|7---7---9---9---7---7-7/9---9\7|7---7---9---9---7---7-7/9---9\7|
A|5---5---5---5---5---5-5--------|5---5---5---5---5---5----------|
E|-------------------------------|-------------------------------|
Come together Yeah
e|------- ------- ------- -------|------- ------- ------- -------|
B|--------6---3-----------1------|----0--------------------------|
G|--------5---4-----------2------|----0-----------2--------------|
D|----0---------------0----------|0---------------3--------------|
A|-------------------------------|------------5------------------|
E|-------------------------------|-------------------------------|
B B R
e|------- ------- ------- -------|------- ------- ------- -------|
B|13B15-~------------------------|--------------------1315131513-|
G|-------------------------------|-----------------------------15|
D|-------------------------------|-------------------------------|
A|-------------------------------|-------------------------------|
E|-------------------------------|-------------------------------|
..............................Fade.............................




e|------- ------- ------- -------|------- ------- ------- -------|
B|-------------------------------|-------------------------------|
G|--------------------------7-7--|-------------------------------|
D|7---7---9---9-------7-7/9---9--|7---7---9---9---7---7---9---9--|
A|5---5---5---5-------5----------|5---5---5---5---5---5---5---5--|
E|-------------------------------|-------------------------------|
Come together Yeah
e|------- ------- ------- -------|------- ------- ------- -------|
B|--------6---3-----------1------|----0--------------------------|
G|--------5---4-----------2------|----0-----------2--------------|
D|----0---------------0----------|0---------------3--------------|
A|-------------------------------|------------5------------------|
E|-------------------------------|-------------------------------|

e|------- ------- ------- -------|------- ------- ------- -------|
B|13B15-~------------------------|-------------------------------|
G|-------------------------------|-------------------------------|
D|-------------------------------|-------------------------------|
A|-------------------------------|-------------------------------|
E|-------------------------------|-------------------------------|
...............................................................








B Bend
R Release
/ Slide up
\ Slide down
H Hammer-on
P Pull-off
~ Vibrato
+ Harmonic
x Mute note
. Play note like a dot in standard notation
^ Ties two notes together
(. Pause

pjvill

Submitted by pjvill at Thu 01 Dec, 2005 12:25 pm

Author: ?
Composer: ?
Publisher: ?
Language: English

Reactions

CommonCrawl [Bot]

Follow Muzikum