The Beatles

The Beatles
Blackbird Ver 4 (Guitar tab)

------------------------------------------------------------------

THE BEATLES - BLACKBIRD (Lennon/McCartney) From THE WHITE ALBUM.
Released on 22nd November 1968.


------------------------------------------------------------------

Tabbed by:PJVillanueva





Blackbird singing in the dead of night
Take these broken wings and learn to fly
All your life
You were only waiting for this moment to arise.

Blackbird singing in the dead of night
Take these sunken eyes and learn to see
All your life
You were only waiting for this moment to be free.

Blackbird fly Blackbird fly
Into the light of the dark black night.

Blackbird fly Blackbird fly
Into the light of the dark black night.

Blackbird singing in the dead of night
Take these broken wings and learn to fly
All your life
You were only waiting for this moment to arise
You were only waiting for this moment to arise
You were only waiting for this moment to arise.




G Am G
e|------- ------- ------- -------|------- -------|
B|0---------------1--------------|3-------/------|
G|--------0---------------0------|---------------|
D|-------------------------------|---------------|
A|----------------0--------------|2-------/------|
E|3------------------------------|---------------|



e|------- ------- ------- -------|------- ------- ------- -------|
B|12----------------------12-----|12---------12------------------|
G|--------0---0---0---0----0-----|--------0---0---0---0---0------|
D|-------------------------------|-------------------------------|
A|10-----------------------------|10-----------------------------|
E|-------------------------------|-------------------------------|


Am G
e|------- ------- ------- -------|------- -------|
B|0---------------1--------------|3-------/------|
G|--------0---------------0------|---------------|
D|-------------------------------|---------------|
A|----------------0--------------|2-------/------|
E|3------------------------------|---------------|
Blackbird singing in the dead of


e|------- ------- ------- -------|------- ------- ------- -------|
B|12----------------------12-----|12---------12------------------|
G|--------0---0-------0----0-----|--------0---0-------0---0------|
D|-------------------------------|-------------------------------|
A|10--------------10-------------|10--------------10-------------|
E|-------------------------------|-------------------------------|
night

C C#dim Dsus4 Ebdim
e|------- ------- 3------ -------|------- ------- 5------ -------|
B|5------------------------------|7------------------------------|
G|--------0---------------0------|--------0---------------0------|
D|-------------------------------|-------------------------------|
A|3---------------4--------------|5---------------6--------------|
E|-------------------------------|-------------------------------|
Take these broken wings and learn to fly

Em Eb
e|------- ------- ------- -------|------- ------- ------- -------|
B|8------------------------------|8-------8----------------------|
G|--------0---0-------0---0------|--------0---0-------0---0------|
D|-------------------------------|-------------------------------|
A|7---------------7--------------|6---------------6--------------|
E|-------------------------------|-------------------------------|


Dsus4 C#dim C
e|------- ------- 3------ -------|------- ------- ------- -------|
B|7------------------------------|5------------------------------|
G|--------0---------------0------|--------0---0-------0---0------|
D|-------------------------------|-------------------------------|
A|5---------------4--------------|3---------------3--------------|
E|-------------------------------|-------------------------------|
All your life

Cm G
e|------- ------- ------- -------|------- ------- ------- -------|
B|4------------------------------|3------------------------------|
G|--------0---0-------0---0------|--------0-----------0---0------|
D|-------------------------------|-------------------------------|
A|3---------------3--------------|2---------------2--------------|
E|-------------------------------|-------------------------------|
you were only waiting

A7 D7sus2
e|------- ------- ------- -------|------- ------- ------- -------|
B|2------------------------------|1------------------------------|
G|--------0-----------0---0------|--------0-----------0---0------|
D|-------------------------------|0---------------0--------------|
A|0---------------0--------------|-------------------------------|
E|-------------------------------|-------------------------------|
for this moment to arise

G C G
e|------- ------- ------- -------|------- ------- ------- -------|
B|0------------------------------|5---------------3--------------|
G|--------0---0-----------0------|--------0---------------0------|
D|-------------------------------|-------------------------------|
A|-------------------------------|3---------------2--------------|
E|3---------------3--------------|-------------------------------|


A7 D7sus2
e|------- ------- ------- 0------|------- ------- ------- 0------|
B|2-----------------------2------|1-----------------------1------|
G|--------0---0-------0---0------|--------0---0-------0---0------|
D|-------------------------------|0---------------0--------------|
A|0---------------0--------------|-------------------------------|
E|-------------------------------|-------------------------------|



G
e|------- ------- ------- -------|
B|0------------------------------|
G|--------0---0-------0---0------|
D|-------------------------------|
A|-------------------------------|
E|3---------------3--------------|



G Am G
e|------- ------- ------- -------|------- -------|
B|0---------------1--------------|3-------/------|
G|--------0---------------0------|---------------|
D|-------------------------------|---------------|
A|----------------0--------------|2-------/------|
E|3------------------------------|---------------|
Blackbird singing in the dead of



e|------- ------- ------- -------|------- ------- ------- -------|
B|12----------------------12-----|12-----------------------------|
G|--------0---0-------0----0-----|--------0-----------0---0------|
D|-------------------------------|-------------------------------|
A|10--------------10-------------|10-------------10--------------|
E|-------------------------------|-------------------------------|
night

C C#dim Dsus4 Ebdim
e|------- ------- 3------ -------|------- ------- 5------ -------|
B|5------------------------------|7------------------------------|
G|--------0---------------0------|--------0---------------0------|
D|-------------------------------|-------------------------------|
A|3---------------4--------------|5---------------6--------------|
E|-------------------------------|-------------------------------|
Take these sunken eyes and learn to see

Eb Em
e|------- ------- ------- -------|------- ------- ------- -------|
B|8-------------------8---8------|8-------8---8-------8---8------|
G|--------0---0-------0---0------|--------0---0-------0---0------|
D|-------------------------------|-------------------------------|
A|7---------------7--------------|6---------------6--------------|
E|-------------------------------|-------------------------------|


Dsus4 C#dim C
e|------- ------- 3------ -------|------- ------- ------- -------|
B|7------------------------------|5------------------------------|
G|--------0---------------0------|--------0---0-----------0------|
D|-------------------------------|-------------------------------|
A|5---------------4--------------|3---------------3--------------|
E|-------------------------------|-------------------------------|
All your life

Cm G
e|------- ------- ------- -------|------- ------- ------- -------|
B|4-----------4-----------4------|3------------------------------|
G|--------0-----------0----------|--------0---0-------0---0------|
D|-------------------------------|-------------------------------|
A|3---------------3--------------|2---------------2--------------|
E|-------------------------------|-------------------------------|
you were only waiting

A7 D7sus2
e|------- ------- ------- -------|------- ------- ------- -------|
B|2------------------------------|1-----------------------1------|
G|--------0---0-------0---0------|--------0-----------0---0------|
D|-------------------------------|0---------------0--------------|
A|0---------------0--------------|-------------------------------|
E|-------------------------------|-------------------------------|
for this moment to be

G
e|------- ------- ------- -------|
B|0---------------0--------------|
G|--------0---0---0-------0------|
D|-------------------------------|
A|-------------------------------|
E|3---------------3--------------|
free

Fadd9 Em Dm C
e|------- ------- ------- -------|------- ------- ------- -------|
B|10--------------8--------------|6---------------5--------------|
G|--------0---------------0------|--------0---------------0------|
D|-------------------------------|-------------------------------|
A|-8--------------7--------------|5---------------3--------------|
E|-------------------------------|-------------------------------|
Blackbird fly

Bb6 C
e|------- ------- ------- -------|------- ------- ------- -------|
B|3------------------------------|5-------5---5------------------|
G|--------0-----------0---0------|--------0---0-------0---0------|
D|-------------------------------|-------------------------------|
A|1---------------1--------------|3---------------3--------------|
E|-------------------------------|-------------------------------|


Fadd9 Em Dm C
e|------- ------- ------- -------|------- ------- ------- -------|
B|10--------------8--------------|6---------------5--------------|
G|--------0---------------0------|--------0---------------0------|
D|-------------------------------|-------------------------------|
A|-8--------------7--------------|5---------------3--------------|
E|-------------------------------|-------------------------------|
Blackbird fly

Bb6 A7
e|------- ------- ------- -------|------- ------- ------- -------|
B|3------------------------------|2---------------2--------------|
G|--------0---0-------0---0------|--------0---0-----------0------|
D|-------------------------------|-------------------------------|
A|1---------------1--------------|0---------------0--------------|
E|-------------------------------|-------------------------------|

into the light

D7sus4
e|------- ------- ------- -------|
B|1------------------------------|
G|--------0---0-------0---0------|
D|0---------------0--------------|
A|-------------------------------|
E|-------------------------------|
of the dark black


G Am G
e|------- ------- ------- -------|------- -------|
B|0---------------1--------------|3-------/------|
G|--------0---------------0------|---------------|
D|-------------------------------|---------------|
A|----------------0--------------|2-------/------|
E|3------------------------------|---------------|
night


e|------- ------- ------- -------|------- ------- ------- -------|
B|12-----------------------------|12-------------12--/-----------|
G|--------0---0-------0----0-----|--------0---------------0------|
D|-------------------------------|-------------------------------|
A|10--------------10-------------|10-------------10--/-----------|
E|-------------------------------|-------------------------------|


C C#dim Dsus4 D#dim
e|------- ------- 3------ -------|------- ------- 5------ -------|
B|5------------------------------|7------------------------------|
G|--------0---------------0------|--------0---------------0------|
D|-------------------------------|-------------------------------|
A|3---------------4--------------|5---------------6--------------|
E|-------------------------------|-------------------------------|


Em Eb
e|------- ------- ------- -------|------- ------- ------- -------|
B|8------------------------------|8------------------------------|
G|--------0---0-------0---0------|--------0---0-------0---0------|
D|-------------------------------|-------------------------------|
A|7---------------7--------------|6---------------6--------------|
E|-------------------------------|-------------------------------|


D C#dim C
e|------- ------- 3------ -------|------- ------- ------- -------|
B|7-----------------------0------|5------------------------------|
G|--------0---------------0------|--------0---0-------0---0------|
D|-------------------------------|-------------------------------|
A|5---------------4--------------|3---------------3--------------|
E|-------------------------------|-------------------------------|


Cm G
e|------- ------- ------- -------|------- ------- ------- -------|
B|4------------------------------|3------------------------------|
G|--------0---0-------0---0------|--------0---0-------0---0------|
D|-------------------------------|-------------------------------|
A|3---------------3--------------|2---------------2--------------|
E|-------------------------------|-------------------------------|


A7 D7sus4
e|------- 0---0-- ----0-- 0------|------- 3---3-- ----3-- 3------|
B|2-------2---2-------2---2------|1-------1---1-------1---1------|
G|--------0---0-------0---0------|--------0---0-------0---0------|
D|-------------------------------|0---------------0--------------|
A|0---------------0--------------|-------------------------------|
E|-------------------------------|-------------------------------|


G
e|------- 3---3-- ----3-- 3------|
B|0-------0---0-------0---0------|
G|--------0---0-------0---0------|
D|-------------------------------|
A|-------------------------------|
E|3---------------3--------------|


Fadd9 Em Dm C
e|------- ------- ------- -------|------- ------- ------- -------|
B|10--------------8--------------|6---------------5--------------|
G|--------0---------------0------|--------0---------------0------|
D|-------------------------------|-------------------------------|
A|-8--------------7--------------|5---------------3--------------|
E|-------------------------------|-------------------------------|
Blackbird fly

Bb6 C
e|------- ------- ------- -------|------- ------- ------- -------|
B|3------------------------------|5-------5----------------------|
G|--------0---0-------0---0------|--------0---0-------0---0------|
D|-------------------------------|-------------------------------|
A|1---------------1--------------|3---------------3--------------|
E|-------------------------------|-------------------------------|


Fadd9 Em Dm C
e|------- ------- ------- -------|------- ------- ------- -------|
B|10--------------8--------------|6---------------5--------------|
G|--------0---------------0------|--------0---------------0------|
D|-------------------------------|-------------------------------|
A|-8--------------7--------------|5---------------3--------------|
E|-------------------------------|-------------------------------|
Blackbird fly

Bb6 A7
e|------- ------- ------- -------|------- ------- ------- -------|
B|3------------------------------|2------------------------------|
G|--------0-----------0---0------|--------0---0-------0---0------|
D|-------------------------------|-------------------------------|
A|1---------------1--------------|0---------------0--------------|
E|-------------------------------|-------------------------------|

into the light

D7sus4
e|------- ------- ------- -------|
B|1------------------------------|
G|--------0---0-------0---0------|
D|0---------------0--------------|
A|-------------------------------|
E|-------------------------------|
of the dark black


G Am G
e|------- ------- ------- -------|------- -------|
B|0---------------1--------------|3-------/------|
G|--------0---------------0------|---------------|
D|-------------------------------|---------------|
A|----------------0--------------|2-------/------|
E|3------------------------------|---------------|
night


e|------- ------- ------- -------|------- ------- ------- -------|
B|12------12--12------12--12-----|12-------------12---12--12-----|
G|---------0---0-------0---0-----|--------0-------0----0---0-----|
D|-------------------------------|-------------------------------|
A|10--------------10--10--10-----|10-------------10---10--10-----|
E|-------------------------------|-------------------------------|



e|------- ------- ------- -------|------- ------- ------- -------|
B|12------12--12--12--12--12-----|12------12--12--12--12--12-----|
G|---------0---0---0---0---0-----|---------0---0---0---0---0-----|
D|-------------------------------|-------------------------------|
A|10------10--10--10--10--10-----|10------10--10--10--10--10-----|
E|-------------------------------|-------------------------------|

(.

e|------- ------- ------- -------|------- ------- ------- -------|
B|12------12------12------12-----|12------12------12-------------|
G|---------0---------------0-----|---------0---------------------|
D|-------------------------------|-------------------------------|
A|10--------------10-------------|10--------------10-------------|
E|-------------------------------|-------------------------------|





e|------- ------- ------- -------|------- ------- ------- -------|
B|-------------------------------|------------------------12--\--|
G|-------------------------------|-------------------------------|
D|-------------------------------|-------------------------------|
A|-------------------------------|------------------------10--\--|
E|-------------------------------|-------------------------------|


G Am G C
e|------- ------- ------- -------|------- ------- ------- -------|
B|0---------------1--------------|3---------------5--------------|
G|--------0---------------0------|--------0---------------0------|
D|-------------------------------|-------------------------------|
A|----------------0--------------|2---------------3--------------|
E|3------------------------------|-------------------------------|


G A7 D7sus4
e|------- ------- ------- -------|------- ------- ------- -------|
B|3---------------2--------------|1------------------------------|
G|--------0---------------0------|--------0---0-------0---0------|
D|-------------------------------|0---------------0--------------|
A|2---------------0--------------|-------------------------------|
E|-------------------------------|-------------------------------|


G Am G
e|------- ------- ------- -------|------- -------|
B|0---------------1--------------|3-------/------|
G|--------0---------------0------|---------------|
D|-------------------------------|---------------|
A|----------------0--------------|2-------/------|
E|3------------------------------|---------------|
Blackbird singing in the dead of


e|------- ------- ------- -------|------- ------- ------- -------|
B|12------12--12------12--12-----|12------12------12-------------|
G|---------0---0-------0---0-----|---------0-------0-------------|
D|-------------------------------|-------------------------------|
A|10--------------10-------------|10--------------10-------------|
E|-------------------------------|-------------------------------|
night

C C#dim D D#dim
e|------- ------- 3------ -------|------- ------- 5------ -------|
B|5------------------------------|7------------------------------|
G|--------0---------------0------|--------0---------------0------|
D|-------------------------------|-------------------------------|
A|3---------------4--------------|5-------/-------6--------------|
E|-------------------------------|-------------------------------|
Take these broken wings and learn to fly

Em Eb
e|------- ------- ------- -------|------- ------- ------- -------|
B|8-------8---8-------8---8------|8-------8---8-------8---8------|
G|--------0---0-------0---0------|--------0---0-------0---0------|
D|-------------------------------|-------------------------------|
A|7---------------7--------------|6---------------6--------------|
E|-------------------------------|-------------------------------|


D C#dim C
e|------- ------- 3------ -------|------- ------- ------- -------|
B|7------------------------------|5------------------------------|
G|--------0---------------0------|--------0---0-------0---0------|
D|-------------------------------|-------------------------------|
A|5---------------4--------------|3---------------3--------------|
E|-------------------------------|-------------------------------|
All your life

Cm G
e|------- ------- ------- -------|------- ------- ------- -------|
B|4-------4----------------------|3------------------------------|
G|--------0---0-------0---0------|--------0---0-------0---0------|
D|-------------------------------|-------------------------------|
A|3---------------3--------------|2---------------2--------------|
E|-------------------------------|-------------------------------|
you were only waiting

A7 D7sus4
e|------- ------- ------- -------|------- ------- ------- -------|
B|2------------------------------|1------------------------------|
G|--------0---0-------0---0------|--------0-----------0---0------|
D|-------------------------------|0---------------0--------------|
A|0---------------0--------------|-------------------------------|
E|-------------------------------|-------------------------------|
for this moment to arise

G C G
e|------- ------- ------- -------|------- ------- ------- -------|
B|0------------------------------|5---------------3--------------|
G|--------0---0-------0---0------|--------0---------------0------|
D|-------------------------------|-------------------------------|
A|-------------------------------|3---------------2--------------|
E|3---------------3--------------|-------------------------------|
you were only waiting

A7 D7sus4
e|------- ------- ------- -------|------- ------- ------- -------|
B|2------------------------------|1------------------------------|
G|--------0---0-------0---0------|--------0---0-------0---0------|
D|-------------------------------|0---------------0--------------|
A|0---------------0--------------|-------------------------------|
E|-------------------------------|-------------------------------|
for this moment to arise

G C G
e|------- ------- ------- -------|------- ------- ------- -------|
B|0------------------------------|5---------------3--------------|
G|--------0---0-----------0------|--------0---------------0------|
D|-------------------------------|-------------------------------|
A|-------------------------------|3---------------2--------------|
E|3---------------3--------------|-------------------------------|
you were only waiting

A7 D7sus4
e|------- ------- ------- -------|------- ------- ------- -------|
B|2------------------------------|1------------------------------|
G|--------0---0-----------0------|--------0---------------0------|
D|-------------------------------|0---------------0--------------|
A|0---------------0--------------|-------------------------------|
E|-------------------------------|-------------------------------|
for this moment to arise

(.
G
e|------- ------- ------- -------|------- ------- ------- -------|
B|0-------0----------------------|-------------------------------|
G|--------0----------------------|-------------------------------|
D|--------0----------------------|-------------------------------|
A|-------------------------------|-------------------------------|
E|3------------------------------|-------------------------------|








B Bend
R Release
/ slide up
\ slide down
H hammer-on
P pull-off
~ vibrato
+ harmonic
x Mute note
. - play note like a dot in standard notation
^ - ties two notes together
(. Pause

pjvill

Submitted by pjvill at Thu 01 Dec, 2005 11:43 am

Author: ?
Composer: ?
Publisher: ?
Language: English

Reactions

CommonCrawl [Bot]

Follow Muzikum