The Beatles

The Beatles
Birthday Ver 2 (Guitar tab)

-----------------------------------------------------------------

THE BEATLES - BIRTHDAY (Lennon/McCartney) From the WHITE ALBUM.
Released on 22nd November1968.


-----------------------------------------------------------------

Tabbed by:PJVillanueva






You say it's your birthday
It's my birthday too--yeah
They say it's your birthday
We're gonna have a good time
I'm glad it's your birthday
Happy birthday to you.

Yes we're going to a party party
Yes we're going to a party party
Yes we're going to a party party.

I would like you to dance--Birthday
Take a cha-cha-cha-chance-Birthday
I would like you to dance--Birthday
Dance

You say it's your birthday
Well it's my birthday too--yeah
You say it's your birthday
We're gonna have a good time
I'm glad it's your birthday
Happy birthday to you.




x x x x x

e|------- ------- ------- -------|------- ------- ------- -------|
B|-------------------------------|-------------------------------|
G|-------------------------------|-------------------------------|
D|-------------------------------|-------------------------------|
A|-------------------------------|-------------------------------|
E|-------------------------------|-------------------------------|



A
e|------- ------- ------- -------|------- ------- ------- -------|
B|-------------------------------|-------------------------------|
G|------------9---11B12-11----9--|-------------------------------|
D|7---7-9/11---------------------|7------------------------------|
A|-------------------------------|-------------------------------|
E|-------------------------------|-------------------------------|

e|------- ------- ------- -------|------- ------- ------- -------|
B|-------------------------------|-------------------------------|
G|----------------0---2-------2--|-------------------------------|
D|------------2------------------|-------------------------------|
A|0---0-/-4----------------------|0------------------------------|
E|-------------------------------|-------------------------------|





e|------- ------- ------- -------|------- ------- ------- -------|
B|-------------------------------|-------------------------------|
G|------------9---11B12-11----9--|-------------------------------|
D|7---7-9/11---------------------|7------------------------------|
A|-------------------------------|-------------------------------|
E|-------------------------------|-------------------------------|

e|------- ------- ------- -------|------- ------- ------- -------|
B|-------------------------------|-------------------------------|
G|----------------0---2-------2--|-------------------------------|
D|------------2------------------|-------------------------------|
A|0---0-/-4----------------------|0------------------------------|
E|-------------------------------|-------------------------------|



D
e|------- ------- ------- -------|------- ------- ------- -------|
B|------------10--12B13-12----10-|-------------------------------|
G|7---7-9/11---------------------|-------------------------------|
D|-------------------------------|12-----------------------------|
A|-------------------------------|-------------------------------|
E|-------------------------------|-------------------------------|

e|------- ------- ------- -------|------- ------- ------- -------|
B|-------------------------------|-------------------------------|
G|------------2-/-5---7-------7--|-------------------------------|
D|0---0-/-4----------------------|0------------------------------|
A|-------------------------------|-------------------------------|
E|-------------------------------|-------------------------------|



A
e|------- ------- ------- -------|------- ------- ------- -------|
B|-------------------------------|-------------------------------|
G|------------9---11B12-11----9--|-------------------------------|
D|7---7-9/11---------------------|7------------------------------|
A|-------------------------------|-------------------------------|
E|-------------------------------|-------------------------------|

e|------- ------- ------- -------|------- ------- ------- -------|
B|-------------------------------|-------------------------------|
G|----------------0---2-------2--|-------------------------------|
D|------------2------------------|-------------------------------|
A|0---0-/-4----------------------|0------------------------------|
E|-------------------------------|-------------------------------|



E
e|------- ------- ------- -------|------- ------- ------- -------|
B|------------12--14B15-14----12-|-------------------------------|
G|9---911/13---------------------|-------------------------------|
D|-------------------------------|14-----------------------------|
A|-------------------------------|-------------------------------|
E|-------------------------------|-------------------------------|

e|------- ------- ------- -------|------- ------- ------- -------|
B|-------------------------------|-------------------------------|
G|-------------------------------|-------------------------------|
D|----------------0---2----------|-------------------------------|
A|------------2------------------|-------------------------------|
E|0---0---4----------------------|0------------------------------|



A
e|------- ------- ------- -------|------- ------- ------- -------|
B|-------------------------------|-------------------------------|
G|------------9---11B12-11----9--|-------------------------------|
D|7---7-9/11---------------------|7------------------------------|
A|-------------------------------|-------------------------------|
E|-------------------------------|-------------------------------|

e|------- ------- ------- -------|------- ------- ------- -------|
B|-------------------------------|-------------------------------|
G|----------------0---2-------2--|-------------------------------|
D|------------2------------------|-------------------------------|
A|0---0-/-4----------------------|0------------------------------|
E|-------------------------------|-------------------------------|




e|------- ------- ------- -------|------- ------- ------- -------|
B|-------------------------------|-------------------------------|
G|------------9---11B12-11----9--|-------------------------------|
D|7---7-9/11---------------------|7------------------------------|
A|-------------------------------|-------------------------------|
E|-------------------------------|-------------------------------|
You say it's your birthday
e|------- ------- ------- -------|------- ------- ------- -------|
B|-------------------------------|-------------------------------|
G|----------------0---2-------2--|-------------------------------|
D|------------2------------------|-------------------------------|
A|0---0-/-4----------------------|0------------------------------|
E|-------------------------------|-------------------------------|




e|------- ------- ------- -------|------- ------- ------- -------|
B|-------------------------------|-------------------------------|
G|------------9---11B12-11----9--|-------------------------------|
D|7---7-9/11---------------------|7------------------------------|
A|-------------------------------|-------------------------------|
E|-------------------------------|-------------------------------|
It's my birthday too, yeah
e|------- ------- ------- -------|------- ------- ------- -------|
B|-------------------------------|-------------------------------|
G|----------------0---2-------2--|-------------------------------|
D|------------2------------------|-------------------------------|
A|0---0-/-4----------------------|0------------------------------|
E|-------------------------------|-------------------------------|




D
e|------- ------- ------- -------|------- ------- ------- -------|
B|------------10--12B13-12----10-|-------------------------------|
G|7---7-9/11---------------------|-------------------------------|
D|-------------------------------|12-----------------------------|
A|-------------------------------|-------------------------------|
E|-------------------------------|-------------------------------|
They say it's your birthday
e|------- ------- ------- -------|------- ------- ------- -------|
B|-------------------------------|-------------------------------|
G|------------2-/-5---7-------7--|-------------------------------|
D|0---0-/-4----------------------|0------------------------------|
A|-------------------------------|-------------------------------|
E|-------------------------------|-------------------------------|




A
e|------- ------- ------- -------|------- ------- ------- -------|
B|-------------------------------|-------------------------------|
G|------------9---11B12-11----9--|-------------------------------|
D|7---7-9/11---------------------|7------------------------------|
A|-------------------------------|-------------------------------|
E|-------------------------------|-------------------------------|
We're gonna have a good time
e|------- ------- ------- -------|------- ------- ------- -------|
B|-------------------------------|-------------------------------|
G|----------------0-----------2--|-------------------------------|
D|------------2------------------|-------------------------------|
A|0---0-/-4----------------------|0------------------------------|
E|-------------------------------|-------------------------------|




E
e|------- ------- ------- -------|------- ------- ------- -------|
B|------------12--14B15-14----12-|-------------------------------|
G|9---911/13---------------------|-------------------------------|
D|-------------------------------|14-----------------------------|
A|-------------------------------|-------------------------------|
E|-------------------------------|-------------------------------|
I'm glad it's your birthday
e|------- ------- ------- -------|------- ------- ------- -------|
B|-------------------------------|-------------------------------|
G|-------------------------------|-------------------------------|
D|----------------0---2-------2--|-------------------------------|
A|------------2------------------|-------------------------------|
E|0---0---4----------------------|0------------------------------|




A
e|------- ------- ------- -------|------- ------- ------- -------|
B|-------------------------------|-------------------------------|
G|------------9---11B12-11----9--|-------------------------------|
D|7---7-9/11---------------------|7------------------------------|
A|-------------------------------|-------------------------------|
E|-------------------------------|-------------------------------|
Happy birthday to you
e|------- ------- ------- -------|------- ------- ------- -------|
B|-------------------------------|-------------------------------|
G|----------------0---2-------2--|-------------------------------|
D|------------2------------------|-------------------------------|
A|0---0-/-4----------------------|0------------------------------|
E|-------------------------------|-------------------------------|



X x X x X x X x X x X x X x X x

e|------- ------- ------- -------|------- ------- ------- -------|
B|-------------------------------|-------------------------------|
G|-------------------------------|-------------------------------|
D|-------------------------------|-------------------------------|
A|-------------------------------|-------------------------------|
E|-------------------------------|-------------------------------|


X x X x X x X x X x X x X x X x

e|------- ------- ------- -------|------- ------- ------- -------|
B|-------------------------------|-------------------------------|
G|-------------------------------|-------------------------------|
D|-------------------------------|-------------------------------|
A|-------------------------------|-------------------------------|
E|-------------------------------|-------------------------------|


X x X x X x X x X x X x X x X x

e|------- ------- ------- -------|------- ------- ------- -------|
B|-------------------------------|-------------------------------|
G|-------------------------------|-------------------------------|
D|-------------------------------|-------------------------------|
A|-------------------------------|-------------------------------|
E|-------------------------------|-------------------------------|


X x X x X x X x X X X X X X X X

e|------- ------- ------- -------|------- ------- ------- -------|
B|-------------------------------|-------------------------------|
G|-------------------------------|-------------------------------|
D|-------------------------------|-------------------------------|
A|-------------------------------|-------------------------------|
E|-------------------------------|-------------------------------|




e|------- ------- ------- -------|------- ------- ------- -------|
B|-------------------------------|-------------------------------|
G|-------------------------------|-------------------------------|
D|2---2---2---2---2---2---2---2--|2---2---2---2---2---2---2---2--|
A|2---2---2---2---2---2---2---2--|2---2---2---2---2---2---2---2--|
E|0---0---0---0---0---0---0---0--|0---0---0---0---0---0---0---0--|

e|4---4-- ------- ------- ----4--|------- ------- ------- -------|
B|5---5-----------------------5--|-------------------------------|
G|4---4-----------------------4--|-------------------------------|
D|-------------------------------|-------------------------------|
A|-------------------------------|-------------------------------|
E|-------------------------------|-------------------------------|




E5
e|------- ------- ------- -------|------- ------- ------- -------|
B|-------------------------------|-------------------------------|
G|-------------------------------|-------------------------------|
D|2---2---2---2---2---2---2---2--|2---2---2---2---2---2---2---2--|
A|2---2---2---2---2---2---2---2--|2---2---2---2---2---2---2---2--|
E|0---0---0---0---0---0---0---0--|0---0---0---0---0---0---0---0--|
Yes we're going to a party party
e|4------ ------- ------- ----4--|------- ------- ------- ----4--|
B|5---------------------------5--|----------------------------5--|
G|4---------------------------4--|----------------------------4--|
D|-------------------------------|-------------------------------|
A|-------------------------------|-------------------------------|
E|-------------------------------|-------------------------------|





e|------- ------- ------- -------|------- ------- ------- -------|
B|-------------------------------|-------------------------------|
G|-------------------------------|-------------------------------|
D|2---2---2---2---2---2---2---2--|2---2---2---2---2---2---2---2--|
A|2---2---2---2---2---2---2---2--|2---2---2---2---2---2---2---2--|
E|0---0---0---0---0---0---0---0--|0---0---0---0---0---0---0---0--|
Yes we're going to a party party
Yes we're going to a party party
e|------- ------- ------- ----4--|------- ------- ------- ----4--|
B|----------------------------5--|----------------------------5--|
G|----------------------------4--|----------------------------4--|
D|-------------------------------|-------------------------------|
A|-------------------------------|-------------------------------|
E|-------------------------------|-------------------------------|





e|------- ------- ------- -------|------- ------- ------- -------|
B|-------------------------------|-------------------------------|
G|-------------------------------|-------------------------------|
D|2---2---2---2---2---2---2---2--|2---2---2---2---2---2---2---2--|
A|2---2---2---2---2---2---2---2--|2---2---2---2---2---2---2---2--|
E|0---0---0---0---0---0---0---0--|0---0---0---0---0---0---0---0--|
Yes we're going to a party party
Yes we're going to a party party
e|------- ------- ------- ----4--|------- ------- ----4-- -------|
B|----------------------------5--|--------------------5----------|
G|----------------------------4--|--------------------4----------|
D|-------------------------------|-------------------------------|
A|-------------------------------|-------------------------------|
E|-------------------------------|-------------------------------|



C G7
e|-8---8- -8---8- -8---8- -8---8-|-7---7- -7---7- -7---7- -7---7-|
B|-8---8---8---8---8---8---8---8-|-8---8---8---8---8---8---8---8-|
G|-9---9---9---9---9---9---9---9-|10--10--10--10--10--10--10--10-|
D|10--10--10--10--10--10--10--10-|-9---9---9---9---9---9---9---9-|
A|-------------------------------|-------------------------------|
E|-------------------------------|-------------------------------|
I would like you to dance
e|------- ------- ------- -------|------- ------- ------- -------|
B|-------------------------------|-------------------------------|
G|-------------------------------|-------------------------------|
D|----------------3---3---4---4--|5---5---3---3---2---2----------|
A|3---3-/-7---7------------------|------------------------5---5--|
E|-------------------------------|-------------------------------|



C G7
e|-8---8- -8---8- -8---8- -8---8-|-7---7- -7---7- -7---7- -7---7-|
B|-8---8---8---8---8---8---8---8-|-8---8---8---8---8---8---8---8-|
G|-9---9---9---9---9---9---9---9-|10--10--10--10--10--10--10--10-|
D|10--10--10--10--10--10--10--10-|-9---9---9---9---9---9---9---9-|
A|-------------------------------|-------------------------------|
E|-------------------------------|-------------------------------|
Take a cha cha cha chance
Birthday
e|------- ------- ------- -------|------- ------- ------- -------|
B|-------------------------------|-------------------------------|
G|-------------------------------|-------------------------------|
D|----------------3---3---4---4--|5---5---3---3---2---2----------|
A|3---3-/-7---7------------------|------------------------5---5--|
E|-------------------------------|-------------------------------|



C G7
e|-8---8- -8---8- -8---8- -8---8-|-7---7- -7---7- -7---7- -7---7-|
B|-8---8---8---8---8---8---8---8-|-8---8---8---8---8---8---8---8-|
G|-9---9---9---9---9---9---9---9-|10--10--10--10--10--10--10--10-|
D|10--10--10--10--10--10--10--10-|-9---9---9---9---9---9---9---9-|
A|-------------------------------|-------------------------------|
E|-------------------------------|-------------------------------|
I would like you to dance
Birthday
e|------- ------- ------- -------|------- ------- ------- -------|
B|-------------------------------|-------------------------------|
G|-------------------------------|-------------------------------|
D|----------------3---3---4---4--|5---5---3---3---2---2----------|
A|3---3-/-7---7------------------|------------------------5---5--|
E|-------------------------------|-------------------------------|



C G7
e|-8---8- -8---8- -8---8- -8---8-|-7---7- -7---7- -7---7- -7---7-|
B|-8---8---8---8---8---8---8---8-|-8---8---8---8---8---8---8---8-|
G|-9---9---9---9---9---9---9---9-|10--10--10--10--10--10--10--10-|
D|10--10--10--10--10--10--10--10-|-9---9---9---9---9---9---9---9-|
A|-------------------------------|-------------------------------|
E|-------------------------------|-------------------------------|
Dance
Birthday
e|------- ------- ------- -------|------- ------- ------- -------|
B|-------------------------------|-------------------------------|
G|-------------------------------|-------------------------------|
D|----------------3---3---4---4--|5---5---6---6---7---7---8---8--|
A|3---3-/-7---7------------------|-------------------------------|
E|-------------------------------|-------------------------------|



E Esus4
e|4---4-- 4---4-- 4---4-- 4---4--|5---5-- 5---4-- 4---4-- 4---4--|
B|5---5---5---5---5---5---5---5--|5---5---5---5---5---5---5---5--|
G|4---4---4---4---4---4---4---4--|4---4---4---4---4---4---4---4--|
D|-------------------------------|-------------------------------|
A|-------------------------------|-------------------------------|
E|-------------------------------|-------------------------------|
E5
e|------- ------- ------- -------|------- ------- ------- -------|
B|-------------------------------|-------------------------------|
G|-------------------------------|-------------------------------|
D|2---2---2---2---2---2---2---2--|2---2---2---2---2---2---2---2--|
A|2---2---2---2---2---2---2---2--|2---2---2---2---2---2---2---2--|
E|0---0---0---0---0---0---0---0--|0---0---0---0---0---0---0---0--|

e|------- ------- ------- ----12-|------- 12----- ----12- -------|
B|----------------------------15B17-------15B17-------15B17------|
G|-------------------------------|-------------------------------|
D|9---9---9---9------------------|-------------------------------|
A|-------------------------------|-------------------------------|
E|-------------------------------|-------------------------------|



A
e|------- ------- ------- -------|------- ------- ------- -------|
B|-------------------------------|-------------------------------|
G|------------9---11B12-11----9--|-------------------------------|
D|7---7-9/11---------------------|7------------------------------|
A|-------------------------------|-------------------------------|
E|-------------------------------|-------------------------------|

e|------- ------- ------- -------|------- ------- ------- -------|
B|-------------------------------|-------------------------------|
G|----------------0---2-------2--|-------------------------------|
D|------------2------------------|-------------------------------|
A|0---0-/-4----------------------|0------------------------------|
E|-------------------------------|-------------------------------|

e|------- ------- ------- -------|-----9- ----10- --8/9-- -------|
B|-------------------------------|----10------10----910-------10-|
G|-------------------------------|-----9------11----8/9----------|
D|-------------------------------|-------------------------------|
A|-------------------------------|-------------------------------|
E|-------------------------------|-------------------------------|






e|------- ------- ------- -------|------- ------- ------- -------|
B|-------------------------------|-------------------------------|
G|------------9---11B12-11----9--|-------------------------------|
D|7---7-9/11---------------------|7------------------------------|
A|-------------------------------|-------------------------------|
E|-------------------------------|-------------------------------|

e|------- ------- ------- -------|------- ------- ------- -------|
B|-------------------------------|-------------------------------|
G|----------------0---2-------2--|-------------------------------|
D|------------2------------------|-------------------------------|
A|0---0-/-4----------------------|0------------------------------|
E|-------------------------------|-------------------------------|

e|------- ------- ------- -------|-----9- ----10- --8/9-- -------|
B|-------------------------------|----10------10----910-------10-|
G|-------------------------------|-----9------11----8/9----------|
D|-------------------------------|-------------------------------|
A|-------------------------------|-------------------------------|
E|-------------------------------|-------------------------------|





D
e|------- ------- ------- -------|------- ------- ------- -------|
B|------------10--12B13-12----10-|-------------------------------|
G|7---7-9/11---------------------|-------------------------------|
D|-------------------------------|12-----------------------------|
A|-------------------------------|-------------------------------|
E|-------------------------------|-------------------------------|

e|------- ------- ------- -------|------- ------- ------- -------|
B|-------------------------------|-------------------------------|
G|------------2-/-5---7-------7--|-------------------------------|
D|0---0-/-4----------------------|0------------------------------|
A|-------------------------------|-------------------------------|
E|-------------------------------|-------------------------------|

e|------- ------- ------- -------|----10- ----10- --9/10- -------|
B|-------------------------------|----10------12----9/10---------|
G|-------------------------------|----11------12---10/11---------|
D|-------------------------------|----------------------------12-|
A|-------------------------------|-------------------------------|
E|-------------------------------|-------------------------------|




A
e|------- ------- ------- -------|------- ------- ------- -------|
B|-------------------------------|-------------------------------|
G|------------9---11B12-11----9--|-------------------------------|
D|7---7-9/11---------------------|7------------------------------|
A|-------------------------------|-------------------------------|
E|-------------------------------|-------------------------------|

e|------- ------- ------- -------|------- ------- ------- -------|
B|-------------------------------|-------------------------------|
G|----------------0---2-------2--|-------------------------------|
D|------------2------------------|-------------------------------|
A|0---0-/-4----------------------|0------------------------------|
E|-------------------------------|-------------------------------|

e|------- ------- ------- -------|-----9- ----10- --8/9-- -------|
B|-------------------------------|----10------10----910-------10-|
G|-------------------------------|-----9------11----8/9----------|
D|-------------------------------|-------------------------------|
A|-------------------------------|-------------------------------|
E|-------------------------------|-------------------------------|




E
e|------- ------- ------- -------|------- ------- ------- -------|
B|------------12--14B15-14----12-|-------------------------------|
G|9---911/13---------------------|-------------------------------|
D|-------------------------------|14-----------------------------|
A|-------------------------------|-------------------------------|
E|-------------------------------|-------------------------------|

e|------- ------- ------- -------|------- ------- ------- -------|
B|-------------------------------|-------------------------------|
G|-------------------------------|-------------------------------|
D|----------------0---2-------2--|-------------------------------|
A|------------2------------------|-------------------------------|
E|0---0---4----------------------|0------------------------------|

e|------- ------- ------- -------|----7-- -----9- --6/7-- -------|
B|-------------------------------|----9-------10----8/9----------|
G|-------------------------------|----9--------9----8/9-------9--|
D|-------------------------------|-------------------------------|
A|-------------------------------|-------------------------------|
E|-------------------------------|-------------------------------|




A
e|------- ------- ------- -------|------- ------- ------- -------|
B|-------------------------------|-------------------------------|
G|------------9---11B12-11----9--|-------------------------------|
D|7---7-9/11---------------------|7------------------------------|
A|-------------------------------|-------------------------------|
E|-------------------------------|-------------------------------|

e|------- ------- ------- -------|------- ------- ------- -------|
B|-------------------------------|-------------------------------|
G|----------------0---2-------2--|-------------------------------|
D|------------2------------------|-------------------------------|
A|0---0-/-4----------------------|0------------------------------|
E|-------------------------------|-------------------------------|

e|------- ------- ------- -------|-----9- ----10- --8/9-- -------|
B|-------------------------------|----10------10----910-------10-|
G|-------------------------------|-----9------11----8/9----------|
D|-------------------------------|-------------------------------|
A|-------------------------------|-------------------------------|
E|-------------------------------|-------------------------------|





e|5------ ------- ------- -------|------- ------- ------- -------|
B|----5-------8-------8B10--R--8-|5------------------------------|
G|-------------------------------|----7---5----------------------|
D|-------------------------------|------------7---5--------------|
A|-------------------------------|-------------------------------|
E|-------------------------------|-------------------------------|




e|------- ------- ----5-- ----8--10B12R10 8108--- ------- -------|
B|----5-------8------------------|------------10--8--------------|
G|-------------------------------|-------------------------------|
D|7------------------------------|-------------------------------|
A|-------------------------------|-------------------------------|
E|-------------------------------|-------------------------------|




C G7
e|-8---8- -8---8- -8---8- -8---8-|-7---7- -7---7- -7---7- -7---7-|
B|-8---8---8---8---8---8---8---8-|-8---8---8---8---8---8---8---8-|
G|-9---9---9---9---9---9---9---9-|10--10--10--10--10--10--10--10-|
D|10--10--10--10--10--10--10--10-|-9---9---9---9---9---9---9---9-|
A|-------------------------------|-------------------------------|
E|-------------------------------|-------------------------------|
I would like you to dance
e|------- ------- ------- -------|------- ------- ------- -------|
B|-------------------------------|-------------------------------|
G|-------------------------------|-------------------------------|
D|----------------3---3---4---4--|5---5---3---3---2---2----------|
A|3---3-/-7---7------------------|------------------------5---5--|
E|-------------------------------|-------------------------------|



C G7
e|-8---8- -8---8- -8---8- -8---8-|-7---7- -7---7- -7---7- -7---7-|
B|-8---8---8---8---8---8---8---8-|-8---8---8---8---8---8---8---8-|
G|-9---9---9---9---9---9---9---9-|10--10--10--10--10--10--10--10-|
D|10--10--10--10--10--10--10--10-|-9---9---9---9---9---9---9---9-|
A|-------------------------------|-------------------------------|
E|-------------------------------|-------------------------------|
Take a cha cha cha chance
Birthday
e|------- ------- ------- -------|------- ------- ------- -------|
B|-------------------------------|-------------------------------|
G|-------------------------------|-------------------------------|
D|----------------3---3---4---4--|5---5---3---3---2---2----------|
A|3---3-/-7---7------------------|------------------------5---5--|
E|-------------------------------|-------------------------------|



C G7
e|-8---8- -8---8- -8---8- -8---8-|-7---7- -7---7- -7---7- -7---7-|
B|-8---8---8---8---8---8---8---8-|-8---8---8---8---8---8---8---8-|
G|-9---9---9---9---9---9---9---9-|10--10--10--10--10--10--10--10-|
D|10--10--10--10--10--10--10--10-|-9---9---9---9---9---9---9---9-|
A|-------------------------------|-------------------------------|
E|-------------------------------|-------------------------------|
I would like you to dance
Birthday
e|------- ------- ------- -------|------- ------- ------- -------|
B|-------------------------------|-------------------------------|
G|-------------------------------|-------------------------------|
D|----------------3---3---4---4--|5---5---3---3---2---2----------|
A|3---3-/-7---7------------------|------------------------5---5--|
E|-------------------------------|-------------------------------|



C G7
e|-8---8- -8---8- -8---8- -8---8-|-7---7- -7---7- -7---7- -7---7-|
B|-8---8---8---8---8---8---8---8-|-8---8---8---8---8---8---8---8-|
G|-9---9---9---9---9---9---9---9-|10--10--10--10--10--10--10--10-|
D|10--10--10--10--10--10--10--10-|-9---9---9---9---9---9---9---9-|
A|-------------------------------|-------------------------------|
E|-------------------------------|-------------------------------|
Dance
Birthday
e|------- ------- ------- -------|------- ------- ------- -------|
B|-------------------------------|-------------------------------|
G|-------------------------------|-------------------------------|
D|----------------3---3---4---4--|5---5---6---6---7---7---8---8--|
A|3---3-/-7---7------------------|-------------------------------|
E|-------------------------------|-------------------------------|



E Esus4
e|4---4-- 4---4-- 4---4-- 4---4--|5---5-- 5---4-- 4---4-- 4---4--|
B|5---5---5---5---5---5---5---5--|5---5---5---5---5---5---5---5--|
G|4---4---4---4---4---4---4---4--|4---4---4---4---4---4---4---4--|
D|-------------------------------|-------------------------------|
A|-------------------------------|-------------------------------|
E|-------------------------------|-------------------------------|
E5
e|------- ------- ------- -------|------- ------- ------- -------|
B|-------------------------------|-------------------------------|
G|-------------------------------|-------------------------------|
D|2---2---2---2---2---2---2---2--|2---2---2---2---2---2---2---2--|
A|2---2---2---2---2---2---2---2--|2---2---2---2---2---2---2---2--|
E|0---0---0---0---0---0---0---0--|0---0---0---0---0---0---0---0--|

e|------- ------- ------- ----12-|------- 12----- ----12- -------|
B|----------------------------15B17-------15B17-------15B17------|
G|-------------------------------|-------------------------------|
D|9---9---9---9------------------|-------------------------------|
A|-------------------------------|-------------------------------|
E|-------------------------------|-------------------------------|



A
e|------- ------- ------- -------|------- ------- ------- -------|
B|-------------------------------|-------------------------------|
G|------------9---11B12-11----9--|-------------------------------|
D|7---7-9/11---------------------|7------------------------------|
A|-------------------------------|-------------------------------|
E|-------------------------------|-------------------------------|
You say it's your birthday
e|------- ------- ------- -------|------- ------- ------- -------|
B|-------------------------------|-------------------------------|
G|----------------0---2-------2--|-------------------------------|
D|------------2------------------|-------------------------------|
A|0---0-/-4----------------------|0------------------------------|
E|-------------------------------|-------------------------------|

e|------- ------- ------- -------|-----9- ----10- --8/9-- -------|
B|-------------------------------|----10------10----910-------10-|
G|-------------------------------|-----9------11----8/9----------|
D|-------------------------------|-------------------------------|
A|-------------------------------|-------------------------------|
E|-------------------------------|-------------------------------|




e|------- ------- ------- -------|------- ------- ------- -------|
B|-------------------------------|-------------------------------|
G|------------9---11B12-11----9--|-------------------------------|
D|7---7-9/11---------------------|7------------------------------|
A|-------------------------------|-------------------------------|
E|-------------------------------|-------------------------------|
It's my birthday too, yeah
e|------- ------- ------- -------|------- ------- ------- -------|
B|-------------------------------|-------------------------------|
G|----------------0---2-------2--|-------------------------------|
D|------------2------------------|-------------------------------|
A|0---0-/-4----------------------|0------------------------------|
E|-------------------------------|-------------------------------|

e|------- ------- ------- -------|-----9- ----10- --8/9-- -------|
B|-------------------------------|----10------10----910-------10-|
G|-------------------------------|-----9------11----8/9----------|
D|-------------------------------|-------------------------------|
A|-------------------------------|-------------------------------|
E|-------------------------------|-------------------------------|



D
e|------- ------- ------- -------|------- ------- ------- -------|
B|------------10--12B13-12----10-|-------------------------------|
G|7---7-9/11---------------------|-------------------------------|
D|-------------------------------|12-----------------------------|
A|-------------------------------|-------------------------------|
E|-------------------------------|-------------------------------|
You say it's your birthday
e|------- ------- ------- -------|------- ------- ------- -------|
B|-------------------------------|-------------------------------|
G|------------2-/-5---7-------7--|-------------------------------|
D|0---0-/-4----------------------|0------------------------------|
A|-------------------------------|-------------------------------|
E|-------------------------------|-------------------------------|

e|------- ------- ------- -------|----10- ----10- --9/10- -------|
B|-------------------------------|----10------12----9/10---------|
G|-------------------------------|----11------12---10/11---------|
D|-------------------------------|----------------------------12-|
A|-------------------------------|-------------------------------|
E|-------------------------------|-------------------------------|



A
e|------- ------- ------- -------|------- ------- ------- -------|
B|-------------------------------|-------------------------------|
G|------------9---11B12-11----9--|-------------------------------|
D|7---7-9/11---------------------|7------------------------------|
A|-------------------------------|-------------------------------|
E|-------------------------------|-------------------------------|

e|------- ------- ------- -------|------- ------- ------- -------|
B|-------------------------------|-------------------------------|
G|----------------0---2-------2--|-------------------------------|
D|------------2------------------|-------------------------------|
A|0---0-/-4----------------------|0------------------------------|
E|-------------------------------|-------------------------------|
We're gonna have a good time
e|------- ------- ------- -------|-----9- ----10- --8/9-- -------|
B|-------------------------------|----10------10----910-------10-|
G|-------------------------------|-----9------11----8/9----------|
D|-------------------------------|-------------------------------|
A|-------------------------------|-------------------------------|
E|-------------------------------|-------------------------------|



E
e|------- ------- ------- -------|------- ------- ------- -------|
B|------------12--14B15-14----12-|-------------------------------|
G|9---911/13---------------------|-------------------------------|
D|-------------------------------|14-----------------------------|
A|-------------------------------|-------------------------------|
E|-------------------------------|-------------------------------|
I'm glad it's your birthday
e|------- ------- ------- -------|------- ------- ------- -------|
B|-------------------------------|-------------------------------|
G|-------------------------------|-------------------------------|
D|----------------0---2-------2--|-------------------------------|
A|------------2------------------|-------------------------------|
E|0---0---4----------------------|0------------------------------|

e|------- ------- ------- -------|----7-- -----9- --6/7-- -------|
B|-------------------------------|----9-------10----8/9----------|
G|-------------------------------|----9--------9----8/9-------9--|
D|-------------------------------|-------------------------------|
A|-------------------------------|-------------------------------|
E|-------------------------------|-------------------------------|




A
e|------- ------- ------- -------|------- ------- ------- -------|
B|-------------------------------|-------------------------------|
G|------------9---11B12-11-------|------------9---11B12-11-------|
D|7---7-9/11------------------7--|----7-9/11------------------7--|
A|-------------------------------|-------------------------------|
E|-------------------------------|-------------------------------|
Happy birthday to you
e|------- ------- ------- -------|------- ------- ------- -------|
B|-------------------------------|-------------------------------|
G|----------------0--------------|----------------0--------------|
D|------------2-------4----------|------------2-------4----------|
A|0---0-/-4-------------------0--|----0-/-4-------------------0--|
E|-------------------------------|-------------------------------|

e|------- ------- ------- -------|-----9- ----10- --8/9-- -------|
B|-------------------------------|----10------10----910-------10-|
G|-------------------------------|-----9------11----8/9----------|
D|-------------------------------|-------------------------------|
A|-------------------------------|-------------------------------|
E|-------------------------------|-------------------------------|



(.

e|------- ------- ------- -------|
B|-------------------------------|
G|------------9---11B12-11-9-----|
D|----7-9/11------------------7--|
A|-------------------------------|
E|-------------------------------|

e|------- ------- ------- -------|
B|-------------------------------|
G|----------------0--------------|
D|------------2-------4---2------|
A|----0-/-4-------------------0--|
E|-------------------------------|





e|--------5------------------------------5--------------------|
B|----------------5---------------5-------------5-------------|
G|------------------------2----------------------------2------|
D|------------------------------------------------------------|
A|------------------------------------------------------------|
E|------------------------------------------------------------|



e|------------------------------------------------------------|
B|5---------------5-------------------------------------------|
G|--------2----------------2----------------------------------|
D|------------------------------------------------------------|
A|------------------------------------------------------------|
E|------------------------------------------------------------|
..........Fade...................








B Bend
R Release
/ slide up
\ slide down
H hammer-on
P pull-off
~ vibrato
+ harmonic
x Mute note
. - play note like a dot in standard notation
^ - ties two notes together
(. Pause

pjvill

Submitted by pjvill at Thu 01 Dec, 2005 11:42 am

Author: ?
Composer: ?
Publisher: ?
Language: English

Reactions

CommonCrawl [Bot]

Follow Muzikum