The Beatles

The Beatles
Back In The Ussr (Guitar tab)

------------------------------------------------------------------
THE BEATLES - BACK IN THE USSR (Lennon/McCartney) From the WHITE
ALBUM. Released on 22nd November 1968.


------------------------------------------------------------------

Tabbed by:PJVillanueva





Flew in from Miami Beach BOAC
Didn't get to bed last night
On the way the paper bag was on my knee
Man I had a dreadful flight
I'm back in the U.S.S.R.
You don't know how lucky you are boy
Back in the U.S.S.R.

Been away so long I hardly knew the place
Gee it's good to be back home
Leave it till tomorrow to unpack my case
Honey disconnect the phone
I'm back in the U.S.S.R.
You don't know how lucky you are boy
Back in the U.S.S.R.

Well the Ukraine girls really knock me out
They leave the West behind
And Moscow girls make me sing and shout
That Georgia's always on my mind.

I'm back in the U.S.S.R.
You don't know how lucky you are boys
Back in the U.S.S.R.

Show me round your snow peaked mountains way down south
Take me to your daddy's farm
Let me hear your balalaika's ringing out
Come and keep your comrade warm.
I'm back in the U.S.S.R.
You don't know how lucky you are boys
Back in the U.S.S.R.









x x x x x x x x x x x x x x x x
E E7
e|------- ------- ------- 0------|------- ------- ------- 0------|
B|-------------------------------|------------------------3------|
G|-------------------------------|------------------------1------|
D|-------------------------------|------------------------0------|
A|-------------------------------|------------------------2------|
E|-------------------------------|-------------------------------|

e|------- ------- ------- -------|------- ------- ------- -------|
B|3---3---3---3---3---3---3---3--|3---3---3---3---3---3---3---3--|
G|1---1---1---1---1---1---1---1--|1---1---1---1---1---1---1---1--|
D|0---0---0---0---0---0---0---0--|0---0---0---0---0---0---0---0--|
A|2---2---2---2---2---2---2---2--|2---2---2---2---2---2---2---2--|
E|0---0---0---0---0---0---0---0--|0---0---0---0---0---0---0---0--|


A5 D5
e|------- ------- ------- -------|------- ------- ------- -------|
B|-------------------------------|-------------------------------|
G|-------------------------------|7---7---7---7---7---7---7---7--|
D|7---7---7---7---7---7---7---7--|7---7---7---7---7---7---7---7--|
A|7---7---9---7---7---7---9---7--|5---5---5---5---5---5---5---5--|
E|5---5---5---5---5---5---5---5--|-------------------------------|
Flew in from Miami Beach BOAC Didn't

C5 D5
e|------- ------- ------- -------|------- ------- ------- -------|
B|-------------------------------|-------------------------------|
G|5---5---5---5---5---5---5---5--|7---7---7---7---7---7---7---7--|
D|5---5---5---5---5---5---5---5--|7---7---7---7---7---7---7---7--|
A|3---3---3---3---3---3---3---3--|5---5---5---5---5---5---5---5--|
E|-------------------------------|-------------------------------|
get to bed last night

A5 D5
e|------- ------- ------- -------|------- ------- ------- -------|
B|-------------------------------|-------------------------------|
G|-------------------------------|7---7---7---7---7---7---7---7--|
D|7---7---7---7---7---7---7---7--|7---7---7---7---7---7---7---7--|
A|7---7---7---7---7---7---7---7--|5---5---5---5---5---5---5---5--|
E|5---5---5---5---5---5---5---5--|-------------------------------|
On the way the paper bag was on my knee Man
e|------- ------- ------- -------|------- ------- ------- -------|
B|-------------------------------|-------------------------------|
G|-------------------------------|-------------------------------|
D|7-----------7-----------7------|12----------12----------12-----|
A|7-----------7-----------7------|12----------12----------12-----|
E|5-----------5-----------5------|10----------10----------10-----|


C5 D5
e|------- ------- ------- -------|------- ------- ------- -------|
B|-------------------------------|-------------------------------|
G|5---5---5---5---5---5---5---5--|7---7---7---7---7---7---7---7--|
D|5---5---5---5---5---5---5---5--|7---7---7---7---7---7---7---7--|
A|3---3---3---3---3---3---3---3--|5---5---5---5---5---5---5---5--|
E|-------------------------------|-------------------------------|
I had a dreadful flight I'm back in the U.S.S.R.
e|------- ------- ------- -------|------- ------- ------- -------|
B|-------------------------------|-------------------------------|
G|-------------------------------|-------------------------------|
D|10----------10----------10-----|12----------12----------12-----|
A|10----------10----------10-----|12----------12----------12-----|
E|-8-----------8-----------8-----|10----------10----------10-----|


A C
e|------- ------- ------- -------|------- ------- ------- -------|
B|-------------------------------|-------------------------------|
G|-------------------------------|-------------------------------|
D|7---7---7---7---7---7---7---7--|10---10-10---10-10---10-10---10|
A|7---7---7---7---7---7---7---7--|10---10-10---10-10---10-10---10|
E|5---5---5---5---5---5---5---5--|-8----8--8----8--8----8--8----8|

e|------- ------- ------- -------|------- ------- ------- -------|
B|-------------------------------|-------------------------------|
G|----2-------0------------------|---5--------3------------------|
D|----2-------2-------4----------|---5--------5-------7----------|
A|0-----------------------3H4P3H4|3-----------------------6--H--7|
E|-------------------------------|-------------------------------|
You don't know how lucky you are

D
e|------- ------- ------- -------|------- ------- ------- -------|
B|-------------------------------|-------------------------------|
G|-------------------------------|-------------------------------|
D|12---12-12---12-12---12-12---12|12-----------------------------|
A|12---12-12---12-12---12-12---12|12-----------------------------|
E|10---10-10---10-10---10-10---10|10-\---------------------------|

e|------- ------- ------- -------|------- ------- ------- -------|
B|-------------------------------|-------------------------------|
G|----7-------5------------------|-------------------------------|
D|----7-------7-------9----------|-------------------------------|
A|5-----------------------8--H--9|5------------------------------|
E|-------------------------------|-------------------------------|
boy Back in the USSR



A E7
e|------- ------- ------- -------|------- ------- ------- -------|
B|-------------------------------|------------5-------5---5------|
G|-------------------------------|------------7-------7---7------|
D|7---7---7---7---7---7---7---7--|7---7--7----6-------6---6------|
A|7---7---7---7---7---7---7---7--|7---7--7----7-------7---7------|
E|5---5---5---5---5---5---5---5--|5---5--5-----------------------|
D D# E
e|------- ------- ------- -------|---10-- 11-12-- ------- -------|
B|-------------------------------|---10---11-12------------------|
G|-------------------------------|---11---12-13------------------|
D|-------------------------------|-------------------------------|
A|-------------------------------|-------------------------------|
E|-------------------------------|-------------------------------|




A5 A6 A5 A6 A5 D5
e|------- ------- ------- -------|------- ------- ------- -------|
B|-------------------------------|-------------------------------|
G|-------------------------------|7---7---7---7---7---7---7---7--|
D|7---7---7---7---7---7---7---7--|7---7---7---7---7---7---7---7--|
A|7---7---9---7---7---7---9---7--|5---5---5---5---5---5---5---5--|
E|5---5---5---5---5---5---5---5-/|-------------------------------|
Been away so long I hardly knew the place Gee

C5 D5
e|------- ------- ------- -------|------- ------- ------- -------|
B|-------------------------------|-------------------------------|
G|5---5---5---5---5---5---5---5--|7---7---7---7------------------|
D|5---5---5---5---5---5---5---5--|7---7---7---7-------7----------|
A|3---3---3---3---3---3---3---3--|5---5---5---5---9------\7---5--|
E|-------------------------------|-------------------------------|
it's good to be back home Leave

A5 D5
e|------- ------- ------- -------|------- ------- ------- -------|
B|-------------------------------|-------------------------------|
G|-------------------------------|7---7---7---7------------------|
D|7---7---7---7---7---7---7---7--|7---7---7---7-------7----------|
A|7---7---9---7---7---7---9---7--|5---5---5---5---9------\7---5--|
E|5---5---5---5---5---5---5---5--|-------------------------------|
it till tomorrow to unpack my case Honey
C5 D5
e|------- ------- ------- -------|------- ------- ------- -------|
B|-------------------------------|-------------------------------|
G|5---5---5---5---5---5---5---5--|7---7---7---7---7---7---7---7--|
D|5---5---5---5---5---5---5---5--|7---7---7---7---7---7---7---7--|
A|3---3---3---3---3---3---3---3--|5---5---5---5---5---5---5---5--|
E|-------------------------------|-------------------------------|
disconnect the phone. I'm back in the USSR

A5 C5
e|------- ------- ------- -------|------- ------- ------- -------|
B|-------------------------------|-------------------------------|
G|-------------------------------|-------------------------------|
D|7---7---7---7---7---7---7---7--|10---10-10---10-10---10-10---10|
A|7---7---7---7---7---7---7---7--|10---10-10---10-10---10-10---10|
E|5---5---5---5---5---5---5---5--|-8----8--8----8--8----8--8----8|
You don't know how lucky you are,
e|------- ------- ------- -------|------- ------- ------- -------|
B|-------------------------------|-------------------------------|
G|----2-------0------------------|---5--------3------------------|
D|----2-------2-------4----------|---5--------5-------7----------|
A|0-----------------------3H4P3H4|3-----------------------6--H--7|
E|-------------------------------|-------------------------------|


D5
e|------- ------- ------- -------|------- ------- ------- -------|
B|-------------------------------|-------------------------------|
G|-------------------------------|-------------------------------|
D|12---12-12---12-12---12-12---12|12---12------12------12------12|
A|12---12-12---12-12---12-12---12|12---12------12------12------12|
E|10---10-10---10-10---10-10---10|10-\-10------10------10------10|
boy Back in the US Back
e|------- ------- ------- -------|------- ------- ------- -------|
B|-------------------------------|-------------------------------|
G|----7-------5------------------|-------------------------------|
D|----7-------7-------9----------|-------------------------------|
A|5-----------------------8--H--9|5------------------------------|
E|-------------------------------|-------------------------------|



e|------- ------- ------- -------|------- -------|
B|-------------------------------|---------------|
G|-------------------------------|---------------|
D|-----10------10------10------10|-----10------10|
A|-----12------12------12------12|-----12------12|
E|-------------------------------|---------------|
in the US Back in the USSR


A5 A6 A5
e|------- ------- ------- -------|------- ------- ------- -------|
B|-------------------------------|-------------------------------|
G|-------------------------------|-------------------------------|
D|7---7---7---7---7---7---7---7--|7---7---7---7---7---7---7---7--|
A|7---7---9---7---7---7---7---7--|7---7---7---7---7---7---7---7--|
E|5---5---5---5---5---5---5---5--|5---5---5---5---5---5---5---5--|
Well the

D5
e|------- ------- ------- -------|------- ------- ------- -------|
B|-------------------------------|-------------------------------|
G|-------------------------------|-------------------------------|
D|12---12-12---12-12---12-12---12|12---12-12---12-12---12-12---12|
A|12---12-12---12-12---12-12---12|12---12-12---12-12---12-12---12|
E|10---10-10---10-10---10-10---10|10---10-10---10-10---10-10---10|
Ukraine girls really knock me out They

A5
e|------- ------- ------- -------|------- ------- ------- -------|
B|-------------------------------|-------------------------------|
G|-------------------------------|-------------------------------|
D|7---7---7---7---7---7---7---7--|7---7---7---7---7---7---7---7--|
A|7---7---9---7---7---7---7---7--|7---7---7---7---7---7---7---7--|
E|5---5---5---5---5---5---5---5--|5---5---5---5---5---5---5---5--|
leave the West behind And

D5 C#5 C5 B5
e|------- ------- ------- -------|------- ------- ------- -------|
B|-------------------------------|-------------------------------|
G|-------------------------------|-------------------------------|
D|12---12-12---12-11--11--11---11|10--10--10--10--9---9---9---9--|
A|12---12-12---12-11--11--11---11|10--10--10--10--9---9---9---9--|
E|10---10-10---10--9---9---9----9|-8---8---8---8--7---7---7---7--|
Moscow girls make me sing and shout that

E7 D7
e|------- ------- ------- -------|------- ------- ------- -------|
B|5---5---5---5---5---5---5---5--|3---3---3---3---3---3---3---3--|
G|7---7---7---7---7---7---7---7--|5---5---5---5---5---5---5---5--|
D|6---6---6---6---6---6---6---6--|4---4---4---4---4---4---4---4--|
A|7---7---7---7---7---7---7---7--|5---5---5---5---5---5---5---5--|
E|-------------------------------|-------------------------------|
Georgia's always on my my my my my my my my my mind

A5 E7
e|------- ------- ------- -------|------- ------- ------- -------|
B|-------------------------------|----5---5---5---5---5---5---5--|
G|-------------------------------|----7---7---7---7---7---7---7--|
D|7---7---7---7---7---7---7---7--|----6---6---6---6---6---6---6--|
A|7---7---7---7---7---7---7---7--|----7---7---7---7---7---7---7--|
E|5---5---5---5---5---5---5---5--|-------------------------------|





Solo


A5 D5
e|------- ------- ------- -------|------- ------- ------- -------|
B|13B1515-13B1515-13B1515-13B1515|13B1513B1513B15---------1515R13|
G|-------------------------------|-------------------------------|
D|-------------------------------|-------------------------------|
A|-------------------------------|-------------------------------|
E|-------------------------------|-------------------------------|

C5 D5
e|------- ------- ------- -------|------- ------- ------- -------|
B|--------15B17R15---------------|-------------------------------|
G|----------------14---14-----14-|----------------------------14-|
D|-------------------------------|-------------------------------|
A|-------------------------------|-------------------------------|
E|-------------------------------|-------------------------------|


A5 D5
e|------- ------- ------- -------|------- ------- ------- -------|
B|13B15-R-1313B15--R13----13B15-R|14B15---R--14-B-15---R--13-----|
G|-------------------------------|-------------------------------|
D|-------------------------------|-------------------------------|
A|-------------------------------|-------------------------------|
E|-------------------------------|-------------------------------|


C5 D5
e|------- ------- ------- -------|------- ------- ------- -------|
B|--------15B17R15---------------|-------------------------------|
G|----------------14---14-----14-\----12-------------------------|
D|-------------------------------|--------14\1210-B-11-----------|
A|-------------------------------|-------------------------------|
E|-------------------------------|-------------------------------|
I'm back in the USSR



A5 C5
e|------- ------- ------- -------|------- ------- ------- -------|
B|-------------------------------|-------------------------------|
G|-------------------------------|-------------------------------|
D|7---7---7---7---7---7---7---7--|10---10-10---10-10---10-10---10|
A|7---7---7---7---7---7---7---7--|10---10-10---10-10---10-10---10|
E|5---5---5---5---5---5---5---5--|-8----8--8----8--8----8--8----8|

e|------- ------- ------- -------|------- ------- ------- -------|
B|-------------------------------|-------------------------------|
G|----2-------0------------------|---5--------3------------------|
D|----2-------2-------4----------|---5--------5-------7----------|
A|0-----------------------3H4P3H4|3-----------------------6--H--7|
E|-------------------------------|-------------------------------|
You don't know how lucky you are,

D5
e|------- ------- ------- -------|------- ------- ------- -------|
B|-------------------------------|-------------------------------|
G|-------------------------------|-------------------------------|
D|12---12-12---12-12---12-12---12|12-----------------------------|
A|12---12-12---12-12---12-12---12|12-----------------------------|
E|10---10-10---10-10---10-10---10|10-\---------------------------|
boys Back in the USSR
e|------- ------- ------- -------|------- ------- ------- -------|
B|-------------------------------|-------------------------------|
G|----7-------5------------------|-------------------------------|
D|----7-------7-------9----------|-------------------------------|
A|5-----------------------8--H--9|5------------------------------|
E|-------------------------------|-------------------------------|



A5
e|------- ------- ------- -------|------- ------- ------- -------|
B|-------------------------------|-------------------------------|
G|-------------------------------|-------------------------------|
D|7---7---7---7---7---7---7---7--|7---7---7---7---7---7---7---7--|
A|7---7---7---7---7---7---7---7--|7---7---7---7---7---7---7---7--|
E|5---5---5---5---5---5---5---5--|5---5---5---5---5---5---5---5--|
Well the
e|------- ------- ------- -------|------- ------- ------- -------|
B|-------------------------------|-------------------------------|
G|-------------------------------|-------------------------------|
D|-------------------------------|-------------------------------|
A|-------------------------------|0-------2-------3-------4------|
E|-------------------------------|-------------------------------|


D5
e|------- ------- ------- -------|------- ------- ------- -------|
B|-------------------------------|-------------------------------|
G|-------------------------------|-------------------------------|
D|12---12-12---12-12---12-12---12|12---12-12---12-12---12-12---12|
A|12---12-12---12-12---12-12---12|12---12-12---12-12---12-12---12|
E|10---10-10---10-10---10-10---10|10---10-10---10-10---10-10---10|
Ukraine girls really knock me out they
e|------- ------- ------- -------|------- ------- ------- -------|
B|-------------------------------|-------------------------------|
G|-------------------------------|-------------------------------|
D|12---12---------12---12--------|12---12---------12---12--------|
A|12---12---------12---12--------|12---12---------12---12--------|
E|10---10---------10---10--------|10---10---------10---10--------|

A5
e|------- ------- ------- -------|------- ------- ------- -------|
B|-------------------------------|-------------------------------|
G|-------------------------------|-------------------------------|
D|7---7---7---7---7---7---7---7--|7---7---7---7---7---7---7---7--|
A|7---7---9---7---7---7---7---7--|7---7---7---7---7---7---7---7--|
E|5---5---5---5---5---5---5---5--|5---5---5---5---5---5---5---5--|
leave the West behind and

D5 C#5 C5 B5
e|------- ------- ------- -------|------- ------- ------- -------|
B|-------------------------------|-------------------------------|
G|-------------------------------|-------------------------------|
D|12---12-12---12-11--11--11---11|10--10--10--10--9---9---9---9--|
A|12---12-12---12-11--11--11---11|10--10--10--10--9---9---9---9--|
E|10---10-10---10--9---9---9----9|-8---8---8---8--7---7---7---7--|
Moscow girls make me sing and shout that

E7 D7
e|------- ------- ------- -------|------- ------- ------- -------|
B|5---5---5---5---5---5---5---5--|3---3---3---3---3---3---3---3--|
G|7---7---7---7---7---7---7---7--|5---5---5---5---5---5---5---5--|
D|6---6---6---6---6---6---6---6--|4---4---4---4---4---4---4---4--|
A|7---7---7---7---7---7---7---7--|5---5---5---5---5---5---5---5--|
E|-------------------------------|-------------------------------|
Georgia's always on my my my my my my my my my mind

A5 E7
e|------- ------- ------- -------|------- ------- ------- -------|
B|-------------------------------|----5---5---5---5---5---5---5--|
G|-------------------------------|----7---7---7---7---7---7---7--|
D|7---7---7---7---7---7---7---7--|----6---6---6---6---6---6---6--|
A|7---7---7---7---7---7---7---7--|----7---7---7---7---7---7---7--|
E|5---5---5---5---5---5---5---5--|-------------------------------|
Show

A5 D5
e|------- ------- ------- -------|------- ------- ------- -------|
B|-------------------------------|-------------------------------|
G|-------------------------------|7---7---7---7---7---7---7---7--|
D|7---7---7---7---7---7---7---7--|7---7---7---7---7---7---7---7--|
A|7---7---9---7---7---7---9---7--|5---5---5---5---5---5---5---5--|
E|5---5---5---5---5---5---5---5--|-------------------------------|
me round your snow peaked mountains way down South take

e|1717171717171717171717171717171717171717171717171717171717171717
B|-------------------------------|-------------------------------|
G|-------------------------------|-------------------------------|
D|-------------------------------|-------------------------------|
A|-------------------------------|-------------------------------|
E|-------------------------------|-------------------------------|

C5 D5
e|------- ------- ------- -------|------- ------- ------- -------|
B|-------------------------------|-------------------------------|
G|5---5---5---5---5---5---5---5--|7---7---7---7---7---7---7---7--|
D|5---5---5---5---5---5---5---5--|7---7---7---7---7---7---7---7--|
A|3---3---3---3---3---3---3---3--|5---5---5---5---5---5---5---5--|
E|-------------------------------|-------------------------------|
me to your daddy's farm Let

e|1717171717171717171717171717171717171717171717171717171717171717
B|-------------------------------|-------------------------------|
G|-------------------------------|-------------------------------|
D|-------------------------------|-------------------------------|
A|-------------------------------|-------------------------------|
E|-------------------------------|-------------------------------|


A5 D5
e|------- ------- ------- -------|------- ------- ------- -------|
B|-------------------------------|-------------------------------|
G|-------------------------------|7---7---7---7---7---7---7---7--|
D|7---7---7---7---7---7---7---7--|7---7---7---7---7---7---7---7--|
A|7---7---9---7---7---7---9---7--|5---5---5---5---5---5---5---5--|
E|5---5---5---5---5---5---5---5--|-------------------------------|
me hear your balalaikas ringing out Come

e|1717171717171717171717171717171717171717171717171717171717171717
B|-------------------------------|-------------------------------|
G|-------------------------------|-------------------------------|
D|-------------------------------|-------------------------------|
A|-------------------------------|-------------------------------|
E|-------------------------------|-------------------------------|


C5 D5
e|------- ------- ------- -------|------- ------- ------- -------|
B|-------------------------------|-------------------------------|
G|5---5---5---5---5---5---5---5--|7---7---7---7---7---7---7---7--|
D|5---5---5---5---5---5---5---5--|7---7---7---7---7---7---7---7--|
A|3---3---3---3---3---3---3---3--|5---5---5---5---5---5---5---5--|
E|-------------------------------|-------------------------------|
and keep your comrade warm, I'm back in the USSR

e|1717171717171717171717171717171717171717171717171717171717-\---|
B|-------------------------------|-------------------------------|
G|-------------------------------|-------------------------------|
D|-------------------------------|-------------------------------|
A|-------------------------------|-------------------------------|
E|-------------------------------|-------------------------------|



A5 C5
e|------- ------- ------- -------|------- ------- ------- -------|
B|-------------------------------|-------------------------------|
G|-------------------------------|-------------------------------|
D|7---7---7---7---7---7---7---7--|10---10-10---10-10---10-10---10|
A|7---7---7---7---7---7---7---7--|10---10-10---10-10---10-10---10|
E|5---5---5---5---5---5---5---5--|-8----8--8----8--8----8--8----8|
Hey You don't know how lucky you are,
e|------- ------- ------- -------|------- ------- ------- -------|
B|-------------------------------|-------------------------------|
G|----2-------0------------------|---5--------3------------------|
D|----2-------2-------4----------|---5--------5-------7----------|
A|0-----------------------3H4P3H4|3-----------------------6--H--7|
E|-------------------------------|-------------------------------|


D5
e|------- ------- ------- -------|------- ------- ------- -------|
B|-------------------------------|-------------------------------|
G|-------------------------------|-------------------------------|
D|12---12-12---12-12---12-12---12|12-----------------------------|
A|12---12-12---12-12---12-12---12|12-----------------------------|
E|10---10-10---10-10---10-10---10|10-\---------------------------|
boys Back in the USSR
e|------- ------- ------- -------|------- ------- ------- -------|
B|-------------------------------|-------------------------------|
G|----7-------5------------------|-------------------------------|
D|----7-------7-------9----------|-------------------------------|
A|5-----------------------8--H--9|5------------------------------|
E|-------------------------------|-------------------------------|


A5 D5 D#5 E5
e|------- ------- ------- -------|------- ------- ------- -------|
B|-------------------------------|-------------------------------|
G|-------------------------------|----7----8----9----------------|
D|7---7---7---7---7---7---7---7--|----7----8----9----------------|
A|7---7---7---7---7---7---7---7--|----5----6----7----------------|
E|5---5---5---5---5---5---5---5--|-------------------------------|
Oh Let me tell you honey

A5
e|------- ------- ------- -------|------- ------- ------- -------|
B|-------------------------------|-------------------------------|
G|----2-------0--------------5B6-|---2--------0-----------5-B-6--|
D|----2-------2-------4----------|---2--------2-------4----------|
A|0-----------------------4------|0------------------------------|
E|-------------------------------|-------------------------------|
Yeah I'm back I'm back uuuuuuuuuuuuuuu


e|------- ------- ------- -------|------- ------- ------- -------|
B|-------------------------------|-------------------------------|
G|----2-------0------------------|---2--------0------------------|
D|----2-------2-------4----------|---2--------2-------4----------|
A|0-----------------------3-B-4--|0-----------------------3-B-4--|
E|-------------------------------|-------------------------------|
uuuuuuuuuuuuuuuuuuuuuuuuuuuuuuuuuuuuuuuuuuuuuuuuuuuuuuuuuuuuuuu


e|------- ------- ------- -------|------- ------- ------- -------|
B|-------------------------------|-------------------------------|
G|----2-------0------------------|----2-------0------------------|
D|----2-------2-------4----------|----2-------2-------4----------|
A|0-----------------------3-B-4--|0-----------------------3-B-4--|
E|-------------------------------|-------------------------------|
uuuuuuuuuuuuuuuuuuuuuuuuuuuuuuuuuuuuuuuuuuuuuuuuuuuuuuuuuuuuuuu

¨¨¨¨¨¨¨¨¨¨¨¨¨¨¨¨¨¨¨¨¨¨¨¨¨¨¨¨¨¨¨¨¨¨¨¨¨¨¨¨¨¨¨¨¨¨¨¨¨¨¨¨¨¨¨¨¨¨¨¨¨¨
e|------- ------- ------- -------|------- ------- ------- -------|
B|-------------------------------|-------------------------------|
G|2------------------------------|-------------------------------|
D|2------------------------------|-------------------------------|
A|0------------------------------|-------------------------------|
E|-------------------------------|-------------------------------|






B Bend
R Release
/ slide up
\ slide down
H hammer-on
P pull-off
~ vibrato
+ harmonic
x Mute note
. - play note like a dot in standard notation
^ - ties two notes together

pjvill

Submitted by pjvill at Thu 01 Dec, 2005 11:39 am

Author: ?
Composer: ?
Publisher: ?
Language: English

Reactions

CommonCrawl [Bot]

Follow Muzikum