The Beatles

The Beatles
Ask Me Why Ver 2 (Guitar tab)

--------------------------------------------------------------------

THE BEATLES - ASK ME WHY (McCartney/Lennon) From PLEASE, PLEASE ME
album. Released on 22nd March 1963.


--------------------------------------------------------------------

Tabbed by:PJVillanueva





I love you, 'cause you tell me things I want to know.
And it's true that it really only goes to show,
That I know,
That I, I, I, I should never, never, never be blue.

Now you're mine, my happiness still makes me cry.
And in time, you'll understand the reason why,
If I cry,
It's not because I'm sad, but you're the only love that I've ever had.

I can't believe it's happened to me
I can't conceive of any more misery.

Ask me why, I'll say I love you,
And I'm always thinking of you.

I love you, 'cause you tell me things I want to know.
And it's true that it really only goes to show,
That I know,
That I, I, I, I should never, never, never be blue.

Ask me why, I'll say I love you,
And I'm always thinking of you.

I can't believe it's happened to me.
I can't conceive of any more misery.

Ask me why, I'll say I love you,
And I'm always thinking of you.




E
e|0------ ----0-- ------- 0------|0------ ------- ------- -------|
B|0-----------0-----------0------|0------------------------------|
G|1-----------1-----------1------|1------------------------------|
D|2-----------2-----------2------|2------------------------------|
A|2-----------2-----------2------|2------------------------------|
E|0-----------0-----------0------|0------------------------------|
I love
e|------- ------- ------- -------|------- ------- ------- -------|
B|-----------12------------------|-------------------------------|
G|9------------------------------|9---------------4-------6------|
D|------------9-----------9------|----------------6-------7------|
A|7------------------------------|7------------------------------|
E|------------------------7------|-------------------------------|



G#m F#m
e|4------ 4---4-- ----4-- 4------|2------ 2---2-- ------- 2------|
B|4-------4---4-------4---4------|2-------2---2-----------2------|
G|4-------4---4-------4---4------|2-------2---2-----------2------|
D|6-------6---6-------6---6------|4-------4---4-----------4------|
A|6-------6---6-------6---6------|4-------4---4-----------4------|
E|4-------4---4-------4---4------|2-------2---2-----------2------|
you 'cause you tell me things I
e|4------ ------- ------- -------|2------ ------- ------- -------|
B|4------------------------------|2------------------------------|
G|4------------------------------|2------------------------------|
D|6------------------------------|4------------------------------|
A|6------------------------------|4------------------------------|
E|4------------------------------|2------------------------------|



E
e|0------ ----0-- ------- 0------|0------ ------- ------- -------|
B|0-----------0-----------0------|0------------------------------|
G|1-----------1-----------1------|1------------------------------|
D|2-----------2-----------2------|2------------------------------|
A|2-----------2-----------2------|2------------------------------|
E|0-----------0-----------0------|0------------------------------|
want to know And it's
e|------- ------- ------- -------|------- ------- ------- -------|
B|-----------12------------------|-------------------------------|
G|9------------------------------|9---------------4-------6------|
D|------------9-----------9------|----------------6-------7------|
A|7------------------------------|7------------------------------|
E|------------------------7------|-------------------------------|



G#m F#m
e|4------ 4---4-- ----4-- 4------|2-----2 2---2-- ----2-- 2------|
B|4-------4---4-------4---4------|2-----2-2---2-------2---2------|
G|4-------4---4-------4---4------|2-----2-2---2-------2---2------|
D|6-------6---6-------6---6------|4-----4-4---4-------4---4------|
A|6-------6---6-------6---6------|4-----4-4---4-------4---4------|
E|4-------4---4-------4---4------|2-----2-2---2-------2---2------|
true that it really only
e|4------ ------- ------- -------|2------ ------- ------- -------|
B|4------------------------------|2------------------------------|
G|4------------------------------|2------------------------------|
D|6------------------------------|4------------------------------|
A|6------------------------------|4------------------------------|
E|4------------------------------|2------------------------------|



E G#
e|0------ ----0-- ------- 0---0--|4------ ----4-- ------- 4------|
B|0-----------0-----------0---0--|4-----------4-----------4------|
G|1-----------1-----------1---1--|5-----------5-----------5------|
D|2-----------2-----------2---2--|6-----------6-----------6------|
A|2-----------2-----------2---2--|6-----------6-----------6------|
E|0-----------0-----------0---0--|4-----------4-----------4------|
goes to show that I know that
e|------- ------- ------- -------|------- ------- ------- -------|
B|-------------------------------|--------7---7------------------|
G|-------------------------------|-------5-----------------------|
D|--------2---------------2------|------6------------------------|
A|-------2-----------------------|-----6------------------6------|
E|------0------------------------|-------------------------------|



C
e|4------ 4---4-- ------- 4------|4---4-4 4---4-- ----4-- 4------|
B|5-------5---5-----------5------|5---5-5-5---5-------5---5------|
G|6-------6---6-----------6------|6---6-6-6---6-------6---6------|
D|6-------6---6-----------6------|6---6-6-6---6-------6---6------|
A|4-------4---4-----------4------|4---4-4-4---4-------4---4------|
E|-------------------------------|-------------------------------|
I I I I should


Am F#
e|5------ 5---5-- 5---5-- 5------|2------ ----2-- 2---2-- 2------|
B|5-------5---5---5---5---5------|2-----------2---2---2---2------|
G|5-------5---5---5---5---5------|3-----------3---3---3---3------|
D|7-------7---7---7---7---7------|4-----------4---4---4---4------|
A|7-------7---7---7---7---7------|4-----------4---4---4---4------|
E|5-------5---5---5---5---5------|2-----------2---2---2---2------|
never never never be blue.


B
e|2------ ------- ------- -------|
B|4------------------------------|
G|4------------------------------|
D|4------------------------------|
A|2------------------------------|
E|-------------------------------|
Now you're
e|------- ------- ------- -------|
B|-------------------------------|
G|----------------4-------6------|
D|----------------6-------7------|
A|-------------------------------|
E|-------------------------------|



G#m F#m
e|4------ ----4-- 4------ 4------|2---2-2 2---2-- 2---2-- 2------|
B|4-----------4---4-------4------|2---2-2-2---2---2---2---2------|
G|4-----------4---4-------4------|2---2-2-2---2---2---2---2------|
D|6-----------6---6-------6------|4---4-4-4---4---4---4---4------|
A|6-----------6---6-------6------|4---4-4-4---4---4---4---4------|
E|4-----------4---4-------4------|2---2-2-2---2---2---2---2------|
mine my happiness still
e|4------ ------- ------- -------|2------ ------- ------- -------|
B|4------------------------------|2------------------------------|
G|4------------------------------|2------------------------------|
D|6------------------------------|4------------------------------|
A|6------------------------------|4------------------------------|
E|4------------------------------|2------------------------------|



E
e|0------ 0---0-- ------- 0------|0------ ------- ------- -------|
B|0-------0---0-----------0------|0------------------------------|
G|1-------1---1-----------1------|1------------------------------|
D|2-------2---2-----------2------|2------------------------------|
A|2-------2---2-----------2------|2------------------------------|
E|0-------0---0-----------0------|0------------------------------|
makes me cry And in
e|------- ------- ------- -------|------- ------- ------- -------|
B|-----------12------------------|-------------------------------|
G|9------------------------------|9---------------4-------6------|
D|------------9-----------9------|----------------6-------7------|
A|7------------------------------|7------------------------------|
E|------------------------7------|-------------------------------|



G#m F#m
e|4------ 4---4-- ----4-- 4------|2---2-2 2---2-- ----2-- 2------|
B|4-------4---4-------4---4------|2---2-2-2---2-------2---2------|
G|4-------4---4-------4---4------|2---2-2-2---2-------2---2------|
D|6-------6---6-------6---6------|4---4-4-4---4-------4---4------|
A|6-------6---6-------6---6------|4---4-4-4---4-------4---4------|
E|4-------4---4-------4---4------|2---2-2-2---2-------2---2------|
time you'll understand the
e|4------ ------- ------- -------|2------ ----2-- ------- -------|
B|4------------------------------|2-----------2------------------|
G|4------------------------------|2-----------2------------------|
D|6------------------------------|4-----------4------------------|
A|6------------------------------|4-----------4------------------|
E|4------------------------------|2-----------2------------------|



E G#
e|0------ 0---0-- ----0-- 0------|4------ 4---4-- ------- 4------|
B|0-------0---0-------0---0------|4-------4---4-----------4------|
G|1-------1---1-------1---1------|5-------5---5-----------5------|
D|2-------2---2-------2---2------|6-------6---6-----------6------|
A|2-------2---2-------2---2------|6-------6---6-----------6------|
E|0-------0---0-------0---0------|4-------4---4-----------4------|
reason why If I cry it's
e|------- ------- ------- -------|------- ------- ------- -------|
B|------------0------------------|--------7---7-------7----------|
G|--------------------1----------|-------5-----------------------|
D|--------2----------------------|------6------------------------|
A|-------2-----------------------|-----6-------------------------|
E|0------------------------------|-------------------------------|



C#m
e|4------ ----4-- ------- 4------|4---4-4 4---4-- ----4-- 4------|
B|5-----------5-----------5------|5---5-5-5---5-------5---5------|
G|6-----------6-----------6------|6---6-6-6---6-------6---6------|
D|6-----------6-----------6------|6---6-6-6---6-------6---6------|
A|4-----------4-----------4------|4---4-4-4---4-------4---4------|
E|-------------------------------|-------------------------------|
not beacuse I'm sad but you're the
e|4------ ------- ------- -------|4------ ----4-- ------- -------|
B|5------------------------------|5-----------5------------------|
G|6------------------------------|6-----------6------------------|
D|6------------------------------|6-----------6------------------|
A|4------------------------------|4-----------4------------------|
E|-------------------------------|-------------------------------|



Am E
e|5------ 5---5-- ----5-- 5------|0------ ----0-- ----0-- 0------|
B|5-------5---5-------5---5------|0-----------0-------0---0------|
G|5-------5---5-------5---5------|1-----------1-------1---1------|
D|7-------7---7-------7---7------|2-----------2-------2---2------|
A|7-------7---7-------7---7------|2-----------2-------2---2------|
E|5-------5---5-------5---5------|0-----------0-------0---0------|
only love that I've ever had.
e|------- ------- ------- -------|------- ------- ------- -------|
B|1------------------------------|0-----------0------------------|
G|2------------------------------|1-----------------------1------|
D|2------------------------------|2---------------------------2--|
A|0------------------------------|2------------------------------|
E|-------------------------------|-------------------------------|



E+5 A
e|0-----0 0---0-- ------- 0------|0------ ----0-- ----0-- 0------|
B|1-----1-1---1-----------1------|2-----------2-------2---2------|
G|1-----1-1---1-----------1------|2-----------2-------2---2------|
D|2-----2-2---2-----------2------|2-----------2-------2---2------|
A|2-----2-2---2-----------2------|0-----------0-------0---0------|
E|0-----0-0---0-----------0------|-------------------------------|
I can't believe
e|------- ------- ------- -------|------- ------- ------- -------|
B|1-----------1---1----1----1----|2-------------------2-------2--|
G|1-----------1---1----1----1----|2-------------------2-------2--|
D|2-----------2---2----2----2----|2-------------------2-------2--|
A|-------------------------------|-------------------------------|
E|-------------------------------|-------------------------------|



B E
e|2-----2 2---2-- 2---2-- 2------|0------ ----0-- ----0-- 0---0--|
B|4-----4-4---4---4---4---4------|0-----------0-------0---0---0--|
G|4-----4-4---4---4---4---4------|1-----------1-------1---1---1--|
D|4-----4-4---4---4---4---4------|2-----------2-------2---2---2--|
A|2-----2-2---2---2---2---2------|2-----------2-------2---2---2--|
E|-------------------------------|0-----------0-------0---0---0--|
It's happened to me
e|------- ------- ------- -------|------- ------- ------- -------|
B|0-----------0---0----0----0----|0-------------------0---0---0--|
G|2-----------2---2----2----2----|1-------------------1---1---1--|
D|1-----------1---1----1----1----|2-------------------2---2---2--|
A|2-----------2---2----2----2----|2-------------------2---2---2--|
E|-------------------------------|-------------------------------|



E+5 A
e|0-----0 0---0-- ----0-- 0------|0-----0 0---0-- ----0-- 0---0--|
B|1-----1-1---1-------1---1------|2-----2-2---2-------2---2---2--|
G|1-----1-1---1-------1---1------|2-----2-2---2-------2---2---2--|
D|2-----2-2---2-------2---2------|2-----2-2---2-------2---2---2--|
A|2-----2-2---2-------2---2------|0-----0-0---0-------0---0---0--|
E|0-----0-0---0-------0---0------|-------------------------------|
I can't conceive
e|------- ------- ------- -------|------- ------- ------- -------|
B|1-----------1---1----1----1----|2-------------------2-------2--|
G|1-----------1---1----1----1----|2-------------------2-------1--|
D|2-----------2---2----2----2----|2-------------------2-------2--|
A|-------------------------------|-------------------------------|
E|-------------------------------|-------------------------------|



B E
e|2-----2 2---2-- ----2-- 2------|0---0-- 0------ ------- -------|
B|4-----4-4---4-------4---4------|0---0---0----------------------|
G|4-----4-4---4-------4---4------|1---1---1----------------------|
D|4-----4-4---4-------4---4------|2---2---2----------------------|
A|2-----2-2---2-------2---2------|2---2---2----------------------|
E|-------------------------------|0---0---0----------------------|
of anymore misery
e|------- ------- ------- -------|------- ------- ------- -------|
B|-------------------------------|0---0---0----------------------|
G|-------------------------------1----1---1----------------------|
D|------------------------------2|----2---2----------------------|
A|-----------------------------2-|----2---2----------------------|
E|----------------------------0--|----0---0----------------------|



B
e|------- 2------ ------- -------|
B|--------4----------------------|
G|--------4----------------------|
D|--------4----------------------|
A|--------2----------------------|
E|-------------------------------|
Ask me
e|------- ------- ------- -------|
B|-------------------------------|
G|----------------4-------6------|
D|----------------6-------7------|
A|-------------------------------|
E|-------------------------------|



G#m A
e|4------ ----4-- ------- 4------|5-----5 5---5-- ----5-- 5------|
B|4-----------4-----------4------|5-----5-5---5-------5---5------|
G|4-----------4-----------4------|6-----6-6---6-------6---6------|
D|6-----------6-----------6------|7-----7-7---7-------7---7------|
A|6-----------6-----------6------|7-----7-7---7-------7---7------|
E|4-----------4-----------4------|5-----5-5---5-------5---5------|
why I think I love you and I'm


G#m A
e|4-----4 4---4-- ----4-- 4------|5-----5 5---5-- ----5-- 5------|
B|4-----4-4---4-------4---4------|5-----5-5---5-------5---5------|
G|4-----4-4---4-------4---4------|6-----6-6---6-------6---6------|
D|6-----6-6---6-------6---6------|7-----7-7---7-------7---7------|
A|6-----6-6---6-------6---6------|7-----7-7---7-------7---7------|
E|4-----4-4---4-------4---4------|5-----5-5---5-------5---5------|
always thinking of you



E
e|0---0-0 0---0-- 0---0-- 0------|0------ ------- ------- -------|
B|0---0-0-0---0---0---0---0------|0------------------------------|
G|1---1-1-1---1---1---1---1------|1------------------------------|
D|2---2-2-2---2---2---2---2------|2------------------------------|
A|2---2-2-2---2---2---2---2------|2------------------------------|
E|0---0-0-0---0---0---0---0------|0------------------------------|
I love
e|------- ------- ------- -------|------- ------- ------- -------|
B|-----------12------------------|-------------------------------|
G|9------------------------------|9---------------4-------6------|
D|------------9-----------9------|----------------6-------7------|
A|7------------------------------|7------------------------------|
E|------------------------7------|-------------------------------|



G#m F#m
e|4------ 4---4-- ----4-- 4------|2------ 2---2-- ------- 2------|
B|4-------4---4-------4---4------|2-------2---2-----------2------|
G|4-------4---4-------4---4------|2-------2---2-----------2------|
D|6-------6---6-------6---6------|4-------4---4-----------4------|
A|6-------6---6-------6---6------|4-------4---4-----------4------|
E|4-------4---4-------4---4------|2-------2---2-----------2------|
you 'cause you tell me things I
e|4------ ------- ------- -------|2------ ------- ------- -------|
B|4------------------------------|2------------------------------|
G|4------------------------------|2------------------------------|
D|6------------------------------|4------------------------------|
A|6------------------------------|4------------------------------|
E|4------------------------------|2------------------------------|



E
e|0---0-- ----0-- ------- 0------|0------ ------- ------- -------|
B|0---0-------0-----------0------|0------------------------------|
G|1---1-------1-----------1------|1------------------------------|
D|2---2-------2-----------2------|2------------------------------|
A|2---2-------2-----------2------|2------------------------------|
E|0---0-------0-----------0------|0------------------------------|
want to know And it's
e|------- ------- ------- -------|------- ------- ------- -------|
B|-----------12------------------|-------------------------------|
G|9------------------------------|9---------------4-------6------|
D|------------9-----------9------|----------------6-------7------|
A|7------------------------------|7------------------------------|
E|------------------------7------|-------------------------------|



G#m F#m
e|4------ 4---4-- ----4-- 4------|2-----2 2---2-- ----2-- 2------|
B|4-------4---4-------4---4------|2-----2-2---2-------2---2------|
G|4-------4---4-------4---4------|2-----2-2---2-------2---2------|
D|6-------6---6-------6---6------|4-----4-4---4-------4---4------|
A|6-------6---6-------6---6------|4-----4-4---4-------4---4------|
E|4-------4---4-------4---4------|2-----2-2---2-------2---2------|
true that it really only
e|4------ ------- ------- -------|2------ ------- ------- -------|
B|4------------------------------|2------------------------------|
G|4------------------------------|2------------------------------|
D|6------------------------------|4------------------------------|
A|6------------------------------|4------------------------------|
E|4------------------------------|2------------------------------|



E G#
e|0------ ----0-- ----0-- 0------|4------ 4---4-- ------- 4------|
B|0-----------0-------0---0------|4-------4---4-----------4------|
G|1-----------1-------1---1------|5-------5---5-----------5------|
D|2-----------2-------2---2------|6-------6---6-----------6------|
A|2-----------2-------2---2------|6-------6---6-----------6------|
E|0-----------0-------0---0------|4-------4---4-----------4------|
goes to show that I know that
e|------- ------- ------- -------|------- ------- ------- -------|
B|-------------------------------|--------7---7------------------|
G|-------------------------------|-------5-----------------------|
D|----------------2--------------|------6------------------------|
A|------------------------2------|-----6-------------------------|
E|-------------------------------|-------------------------------|



C#m
e|4------ ----4-- ----4-- 4------|4---4-4 4---4-- ----4-- 4------|
B|5-----------5-------5---5------|5---5-5-5---5-------5---5------|
G|6-----------6-------6---6------|6---6-6-6---6-------6---6------|
D|6-----------6-------6---6------|6---6-6-6---6-------6---6------|
A|4-----------4-------4---4------|4---4-4-4---4-------4---4------|
E|-------------------------------|-------------------------------|
I I I I should


Am F#
e|5------ 5---5-- ----5-- 5------|2---2-- ----2-- 2------ 2---2--|
B|5-------5---5-------5---5------|2---2-------2---2-------2---2--|
G|5-------5---5-------5---5------|3---3-------3---3-------3---3--|
D|7-------7---7-------7---7------|4---4-------4---4-------4---4--|
A|7-------7---7-------7---7------|4---4-------4---4-------4---4--|
E|5-------5---5-------5---5------|2---2-------2---2-------2---2--|
never never never be blue.



B
e|2------ ------- ------- -------|
B|4------------------------------|
G|4------------------------------|
D|4------------------------------|
A|2------------------------------|
E|-------------------------------|
Ask me
e|------- ------- ------- -------|
B|-------------------------------|
G|----------------4-------6------|
D|----------------6-------7------|
A|-------------------------------|
E|-------------------------------|



G#m A
e|4------ 4---4-- ------- 4------|5------ ----5-- 5---5-- 5------|
B|4-------4---4-----------4------|5-----------5---5---5---5------|
G|4-------4---4-----------4------|6-----------6---6---6---6------|
D|6-------6---6-----------6------|7-----------7---7---7---7------|
A|6-------6---6-----------6------|7-----------7---7---7---7------|
E|4-------4---4-----------4------|5-----------5---5---5---5------|
why I think I love you and I'm


G#m A
e|4-----4 ----4-- ----4-- 4------|5-----5 5---5-- ----5-- 5------|
B|4-----4-----4-------4---4------|5-----5-5---5-------5---5------|
G|4-----4-----4-------4---4------|6-----6-6---6-------6---6------|
D|6-----6-----6-------6---6------|7-----7-7---7-------7---7------|
A|6-----6-----6-------6---6------|7-----7-7---7-------7---7------|
E|4-----4-----4-------4---4------|5-----5-5---5-------5---5------|
always thinking of you



E
e|0---0-0 0---0-- ----0-- 0------|
B|0---0-0-0---0-------0---0------|
G|1---1-1-1---1-------1---1------|
D|2---2-2-2---2-------2---2------|
A|2---2-2-2---2-------2---2------|
E|0---0-0-0---0-------0---0------|




E+5 A
e|0---0-0 0---0-- ----0-- 0------|0------ ----0-- ----0-- 0------|
B|1---1-1-1---1-------1---1------|2-----------2-------2---2------|
G|1---1-1-1---1-------1---1------|2-----------2-------2---2------|
D|2---2-2-2---2-------2---2------|2-----------2-------2---2------|
A|2---2-2-2---2-------2---2------|0-----------0-------0---0------|
E|0---0-0-0---0-------0---0------|-------------------------------|
I can't believe
e|------- ------- ------- -------|------- ------- ------- -------|
B|1-----------1---1----1----1----|2-------------------2-------2--|
G|1-----------1---1----1----1----|2-------------------2-------2--|
D|2-----------2---2----2----2----|2-------------------2-------2--|
A|-------------------------------|-------------------------------|
E|-------------------------------|-------------------------------|



B E
e|2-----2 2---2-- ----2-- 2------|0-----0 0---0-- ------- 0------|
B|4-----4-4---4-------4---4------|0-----0-0---0-----------0------|
G|4-----4-4---4-------4---4------|1-----1-1---1-----------1------|
D|4-----4-4---4-------4---4------|2-----2-2---2-----------2------|
A|2-----2-2---2-------2---2------|2-----2-2---2-----------2------|
E|-------------------------------|0-----0-0---0-----------0------|
It's happened to me
e|------- ------- ------- -------|------- ------- ------- -------|
B|0-----------0---0----0----0----|0-------------------0---0---0--|
G|2-----------2---2----2----2----|1-------------------1---1---1--|
D|1-----------1---1----1----1----|2-------------------2---2---2--|
A|2-----------2---2----2----2----|2-------------------2---2---2--|
E|-------------------------------|-------------------------------|



E+5 A
e|0-----0 0---0-- ----0-- 0------|0-----0 0---0-- ----0-- 0---0--|
B|1-----1-1---1-------1---1------|2-----2-2---2-------2---2---2--|
G|1-----1-1---1-------1---1------|2-----2-2---2-------2---2---2--|
D|2-----2-2---2-------2---2------|2-----2-2---2-------2---2---2--|
A|2-----2-2---2-------2---2------|0-----0-0---0-------0---0---0--|
E|0-----0-0---0-------0---0------|-------------------------------|
I can't conceive
e|------- ------- ------- -------|------- ------- ------- -------|
B|1-----------1---1----1----1----|2-------------------2-------2--|
G|1-----------1---1----1----1----|2-------------------2-------1--|
D|2-----------2---2----2----2----|2-------------------2-------2--|
A|-------------------------------|-------------------------------|
E|-------------------------------|-------------------------------|



B E
e|2-----2 2---2-- ----2-- 2------|0---0-- 0------ ------- -------|
B|4-----4-4---4-------4---4------|0---0---0----------------------|
G|4-----4-4---4-------4---4------|1---1---1----------------------|
D|4-----4-4---4-------4---4------|2---2---2----------------------|
A|2-----2-2---2-------2---2------|2---2---2----------------------|
E|-------------------------------|0---0---0----------------------|
of anymore misery
e|------- ------- ------- -------|------- ------- ------- -------|
B|-------------------------------|0---0---0----------------------|
G|-------------------------------1----1---1----------------------|
D|------------------------------2|----2---2----------------------|
A|-----------------------------2-|----2---2----------------------|
E|----------------------------0--|----0---0----------------------|



B
e|2------ ------- ------- -------|
B|4------------------------------|
G|4------------------------------|
D|4------------------------------|
A|2------------------------------|
E|-------------------------------|
Ask me
e|------- ------- ------- -------|
B|-------------------------------|
G|----------------4-------6------|
D|----------------6-------7------|
A|-------------------------------|
E|-------------------------------|



G#m A
e|4------ 4---4-- ------- 4------|5-----5 5---5-- ----5-- 5------|
B|4-------4---4-----------4------|5-----5-5---5-------5---5------|
G|4-------4---4-----------4------|6-----6-6---6-------6---6------|
D|6-------6---6-----------6------|7-----7-7---7-------7---7------|
A|6-------6---6-----------6------|7-----7-7---7-------7---7------|
E|4-------4---4-----------4------|5-----5-5---5-------5---5------|
why I think I love you and I'm



G#m A
e|4-----4 4---4-- ----4-- 4------|5-----5 5---5-- 5---5-- 5------|
B|4-----4-4---4-------4---4------|5-----5-5---5---5---5---5------|
G|4-----4-4---4-------4---4------|6-----6-6---6---6---6---6------|
D|6-----6-6---6-------6---6------|7-----7-7---7---7---7---7------|
A|6-----6-6---6-------6---6------|7-----7-7---7---7---7---7------|
E|4-----4-4---4-------4---4------|5-----5-5---5---5---5---5------|
always thinking of you



E A
e|0------ 0---0-- ----0-- 0------|5-----5 5---5-- ----5-- 5------|
B|0-------0---0-------0---0------|5-----5-5---5-------5---5------|
G|1-------1---1-------1---1------|6-----6-6---6-------6---6------|
D|2-------2---2-------2---2------|7-----7-7---7-------7---7------|
A|2-------2---2-------2---2------|7-----7-7---7-------7---7------|
E|0-------0---0-------0---0------|5-----5-5---5-------5---5------|
You
e|------- ------- ------- -------|------- ------- ------- -------|
B|-----------12-------12---------|-------------------------------|
G|9------------------------------|-------------------------------|
D|------------9--------9--9------|-------------------------------|
A|7------------------------------|-------------------------------|
E|------------------------7------|-------------------------------|



E A
e|0------ 0---0-- ----0-- 0------|5-----5 5---5-- ----5-- 5------|
B|0-------0---0-------0---0------|5-----5-5---5-------5---5------|
G|1-------1---1-------1---1------|6-----6-6---6-------6---6------|
D|2-------2---2-------2---2------|7-----7-7---7-------7---7------|
A|2-------2---2-------2---2------|7-----7-7---7-------7---7------|
E|0-------0---0-------0---0------|5-----5-5---5-------5---5------|
You
e|------- ------- ------- -------|------- ------- ------- -------|
B|-----------12-------12---------|-------------------------------|
G|9------------------------------|-------------------------------|
D|------------9--------9--9------|-------------------------------|
A|7------------------------------|-------------------------------|
E|------------------------7------|-------------------------------|


(.
Emaj7
e|------- ------- ------- -------|------- ------- ------- -------|
B|0------------------------------|-------------------------------|
G|1------------------------------|-------------------------------|
D|1------------------------------|-------------------------------|
A|2------------------------------|-------------------------------|
E|0------------------------------|-------------------------------|

e|------- ------- ------- -------|------- ------- ------- -------|
B|----4---4---0---0--------------|-------------------------------|
G|--------------------1---1------|-------------------------------|
D|--------------------1---1------|-------------------------------|
A|--------------------2---2------|-------------------------------|
E|-------------------------------|-------------------------------|








B Bend
R Release
/ slide up
\ slide down
H hammer-on
P pull-off
~ vibrato
+ harmonic
x Mute note
. - play note like a dot in standard notation
^ - ties two notes together
(. pause

pjvill

Submitted by pjvill at Wed 30 Nov, 2005 8:58 am

Author: ?
Composer: ?
Publisher: ?
Language: English

Reactions

CommonCrawl [Bot]

Follow Muzikum