The Beatles

The Beatles
Anytime At All Ver 3 (Guitar tab)

-------------------------------------------------------------------------

THE BEATLES - ANYTIME AT ALL (Lennon/McCartney) From A HARD DAY'S NIGHT
album. Released March 20th 1964.


-------------------------------------------------------------------------

Tabbed by:PJVillanueva






Any time at all, any time at all, any time at all , all
you've gotta do is call and I'll be there.

If you need somebody to love, just look into my eyes, I'll
be there to make you feel right.
If you're feeling sorry and sad, I'd really sympathize.
Don't you be sad, just call me tonight.

Any time at all, any time at all, any time at all , all
you've gotta do is call and I'll be there.

If the sun has faded away, I'll try to make it shine,
there's nothing I won't do
If you need a shoulder to cry on I hope it will be mine.
Call me tonight, and I'll come to you.

Any time at all, any time at all, any time at all , all
you've gotta do is call and I'll be there.
Any time at all, all you've gotta do is call and I'll be there.





X

e|------- ------- ------- -------|------- ------- ------- -------|
B|-------------------------------|-------------------------------|
G|-------------------------------|-------------------------------|
D|-------------------------------|-------------------------------|
A|-------------------------------|-------------------------------|
E|-------------------------------|-------------------------------|
Anytime at

Bm D
e|2------ 2------ 2---2-- 2---2--|------- 2------ 2------ 2------|
B|3-------3-------3---3---3---3--|--------3-------3-------3------|
G|4-------4-------4---4---4---2--|--------2-------2-------2------|
D|4-------4-------4---4---4---0--|--------0-------0-------0------|
A|2-------2-------2---2---2------|-------------------------------|
E|-------------------------------|-------------------------------|
all Anytime at
e|------- ------- ------- -------|------- ------- ------- -------|
B|--------------------3----------|-------------------------------|
G|------------2---4--------------|-------------------------------|
D|-------------------------------|-------------------------------|


A
e|0------ 0---0-- 0---0-- 0---0--|0---0-- 0------ 0---0-- 0---0--|
B|2-------2---2---2---2---2---2--|2---2---2-------2---2---2---2--|
G|2-------2---2---2---2---2---2--|2---2---2-------2---2---2---2--|
D|2-------2---2---2---2---2---2--|2---2---2-------2---2---2---2--|
A|0-------0---0---0---0---0---0--|0---0---0-------0---0---0---0--|
E|-------------------------------|-------------------------------|
all Anytime at
e|------- 0------ ------- ----0--|------- ------- ------- -------|
B|----------------3---2----------|-------------------------------|
G|-------------------------------|-------------------------------|
D|-------------------------------|-------------------------------|


Bm G A
e|2------ 2---2-- 2---2-- 2------|3---3-- 3------ 0------ 0------|
B|3-------3---3---3---3---3------|3---3---3-------2-------2------|
G|4-------4---4---4---4---4------|0---0---0-------2-------2------|
D|4-------4---4---4---4---4------|0---0---0-------2-------2------|
A|2-------2---2---2---2---2------|2---2---2-------0-------0------|
E|-------------------------------|3---3---3----------------------|
all all you've gotta do is call and I'll be

D
e|2------ 2---2-- 2---2-- 2---2--|2------ 2------ 2---2-- 2---2--|
B|3-------3---3---3---3---3---3--|3-------3-------3---3---3---3--|
G|2-------2---2---2---2---2---2--|2-------2-------2---2---2---2--|
D|0-------0---0---0---0---0---0--|0-------0-------0---0---0---0--|
A|-------------------------------|-------------------------------|
E|-------------------------------|-------------------------------|
there
e|3------ 2------ 0------ ----2--|------- ------- ------- -------|
B|--------------------3----------|-------------------------------|
G|-------------------------------|-------------------------------|
D|-------------------------------|-------------------------------|






e|2------ 2---2-- 2---2-- 2---2--|2------ 2------ 2---2-- 2---2--|
B|3-------3---3---3---3---3---3--|3-------3-------3---3---3---3--|
G|2-------2---2---2---2---2---2--|2-------2-------2---2---2---2--|
D|0-------0---0---0---0---0---0--|0-------0-------0---0---0---0--|
A|-------------------------------|-------------------------------|
E|-------------------------------|-------------------------------|
If you need some....body to love,
e|2------ ------- ------- -------|2------ ------- ----2-- -------|
B|3------------------------------|3-------------------3----------|
G|2------------------------------|2-------------------2----------|
D|0------------------------------|-------------------------------|
A|-------------------------------|4-------------------4----------|
E|-------------------------------|-------------------------------|


Bm Gm
e|2------ 2------ 2---2-- 2---2--|3------ 3---3-- 3---3-- 3---3--|
B|3-------3-------3---3---3---3--|3-------3---3---3---3---3---3--|
G|4-------4-------4---4---4---4--|3-------3---3---3---3---3---3--|
D|4-------4-------4---4---4---4--|5-------5---5---5---5---5---5--|
A|2-------2-------2---2---2---2--|5-------5---5---5---5---5---5--|
E|-------------------------------|3-------3---3---3---3---3---3--|
just look into my eyes,
e|2------ ------- ------- -------|3------ ------- ------- -------|
B|3------------------------------|3------------------------------|
G|4------------------------------|3------------------------------|
D|4------------------------------|5------------------------------|
A|2------------------------------|5------------------------------|
E|-------------------------------|3------------------------------|


D A
e|2------ 2---2-- 2---2-- 2---2--|0------ 0---0-- 0---0-- 0------|
B|3-------3---3---3---3---3---3--|2-------2---2---2---2---2------|
G|2-------2---2---2---2---2---2--|2-------2---2---2---2---2------|
D|0-------0---0---0---0---0---0--|2-------2---2---2---2---2------|
A|-------------------------------|0-------0---0---0---0---0------|
E|-------------------------------|-------------------------------|
I'll be there to make you feel right.
e|2------ ------- ------- -------|0------ ------- ------- -------|
B|3------------------------------|2------------------------------|
G|2------------------------------|2------------------------------|
D|0------------------------------|2------------------------------|
A|-------------------------------|0------------------------------|
E|-------------------------------|-------------------------------|



D
e|2------ 2------ 2---2-- 2------|2------ 2---2-- 2---2-- 2------|
B|3-------3-------3---3---3------|3-------3---3---3---3---3------|
G|2-------2-------2---2---2------|2-------2---2---2---2---2------|
D|0-------0-------0---0---0------|0-------0---0---0---0---0------|
A|-------------------------------|-------------------------------|
E|-------------------------------|-------------------------------|
If you're fee...ling sorry and sad
e|2------ ------- ------- -------|2------ ------- ------- -------|
B|3-------3----------------------|3------------------------------|
G|2------------------------------|2------------------------------|
D|0------------------------------|-------------------------------|
A|-------------------------------|4------------------------------|
E|-------------------------------|-------------------------------|


Bm Gm
e|2------ 2------ 2---2-- 2---2--|3------ 3---3-- 3---3-- 3---3--|
B|3-------3-------3---3---3---3--|3-------3---3---3---3---3---3--|
G|4-------4-------4---4---4---4--|3-------3---3---3---3---3---3--|
D|4-------4-------4---4---4---4--|5-------5---5---5---5---5---5--|
A|2-------2-------2---2---2---2--|5-------5---5---5---5---5---5--|
E|-------------------------------|3-------3---3---3---3---3---3--|
I'd really sympa.......thise
e|2------ ------- ------- -------|3------ ------- ------- -------|
B|3------------------------------|3------------------------------|
G|4------------------------------|3------------------------------|
D|4------------------------------|5------------------------------|
A|2------------------------------|5------------------------------|
E|-------------------------------|3------------------------------|

D A
e|2------ 2---2-- 2---2-- 2---2--|0------ 0---0-- 0---0-- 0---0--|
B|3-------3---3---3---3---3---3--|2-------2---2---2---2---2---2--|
G|2-------2---2---2---2---2---2--|2-------2---2---2---2---2---2--|
D|0-------0---0---0---0---0---0--|2-------2---2---2---2---2---2--|
A|-------------------------------|0-------0---0---0---0---0---0--|
E|-------------------------------|-------------------------------|
Don't you be sad, just call me tonight
e|2------ ------- ------- -------|0------ ------- ------- -------|
B|3------------------------------|2------------------------------|
G|2------------------------------|2------------------------------|
D|0------------------------------|2------------------------------|
A|-------------------------------|0------------------------------|
E|-------------------------------|-------------------------------|



X
D
e|2------ 2------ 2---2-- 2---2--|2------ ------- ------- -------|
B|3-------3-------3---3---3---3--|3------------------------------|
G|2-------2-------2---2---2---2--|2------------------------------|
D|0-------0-------0---0---0---0--|0------------------------------|
A|-------------------------------|-------------------------------|
E|-------------------------------|-------------------------------|
Anytime at
e|3------ 2------ 0------ ----2--|------- ------- ------- -------|
B|--------------------3----------|-------------------------------|
G|-------------------------------|-------------------------------|
D|-------------------------------|-------------------------------|
A|-------------------------------|-------------------------------|
E|-------------------------------|-------------------------------|

Bm D
e|2------ 2------ 2---2-- 2---2--|2------ 2------ 2---2-- 2---2--|
B|3-------3-------3---3---3---3--|3-------3-------3---3---3---3--|
G|4-------4-------4---4---4---2--|2-------2-------2---2---2---2--|
D|4-------4-------4---4---4---0--|0-------0-------0---0---0---0--|
A|2-------2-------2---2---2------|-------------------------------|
E|-------------------------------|-------------------------------|
all Anytime at
e|------- ------- ------- -------|------- ------- ------- -------|
B|----------------------------3--|-------------------------------|
G|----------------4---2---4------|-------------------------------|
D|-------------------------------|-------------------------------|
A|-------------------------------|-------------------------------|
E|-------------------------------|-------------------------------|

A
e|0------ 0---0-- ----0-- ----0--|0---0-- 0------ 0------ 0------|
B|2-------2---2-------2-------2--|2---2---2-------2-------2------|
G|2-------2---2-------2-------2--|2---2---2-------2-------2------|
D|2-------2---2-------2-------2--|2---2---2-------2-------2------|
A|0-------0---0-------0-------0--|0---0---0-------0-------0------|
E|-------------------------------|-------------------------------|
all Anytime at
e|------- 0------ ------- ----0--|------- ------- ----0-- 1---2--|
B|----------------3---2----------|-------------------------------|
G|-------------------------------|-------------------------------|
D|-------------------------------|-------------------------------|
A|-------------------------------|-------------------------------|
E|-------------------------------|-------------------------------|

Bm G A
e|2------ 2------ 2---2-- 2------|3---3-- 3------ 0---0-- 0---0--|
B|3-------3-------3---3---3------|3---3---3-------2---2---2---2--|
G|4-------4-------4---4---4------|0---0---0-------2---2---2---2--|
D|4-------4-------4---4---4------|0---0---0-------2---2---2---2--|
A|2-------2-------2---2---2------|2---2---2-------0---0---0---0--|
E|-------------------------------|3---3---3----------------------|
all all you've gotta do is call and I'll be
e|------- ------- ------- -------|------- ------- ------- -------|
B|-------------------------------|3---------------5--------------|
G|-------------------------------|4---------------6--------------|
D|-------------------------------|5---------------7--------------|
A|-------------------------------|-------------------------------|
E|-------------------------------|-------------------------------|

D
e|2------ 2------ 2---2-- 2---2--|2------ 2------ 2---2-- 2---2--|
B|3-------3-------3---3---3---3--|3-------3-------3---3---3---3--|
G|2-------2-------2---2---2---2--|2-------2-------2---2---2---2--|
D|0-------0-------0---0---0---0--|0-------0-------0---0---0---0--|
A|-------------------------------|-------------------------------|
E|-------------------------------|-------------------------------|
there
e|------- ------- ----0-- ----2--|------- ------- ------- -------|
B|--------3----------------------|-------------------------------|
G|-------------------------------|-------------------------------|
D|-------------------------------|-------------------------------|
A|-------------------------------|-------------------------------|
E|-------------------------------|-------------------------------|




e|2------ 2---2-- 2---2-- 2---2--|2------ 2------ 2---2-- 2---2--|
B|3-------3---3---3---3---3---3--|3-------3-------3---3---3---3--|
G|2-------2---2---2---2---2---2--|2-------2-------2---2---2---2--|
D|0-------0---0---0---0---0---0--|0-------0-------0---0---0---0--|
A|-------------------------------|-------------------------------|
E|-------------------------------|-------------------------------|
If the sun has faded away
e|2------ ------- ------- -------|2------ ------- ------- -------|
B|3------------------------------|3------------------------------|
G|2------------------------------|2------------------------------|
D|0------------------------------|-------------------------------|
A|-------------------------------|4------------------------------|
E|-------------------------------|-------------------------------|

Bm Gm
e|2------ 2---2-- 2---2-- 2------|3------ 3---3-- 3---3-- 3------|
B|3-------3---3---3---3---3------|3-------3---3---3---3---3------|
G|4-------4---4---4---4---4------|3-------3---3---3---3---3------|
D|4-------4---4---4---4---4------|5-------5---5---5---5---5------|
A|2-------2---2---2---2---2------|5-------5---5---5---5---5------|
E|-------------------------------|3-------3---3---3---3---3------|
I'll try to make it shine
e|2------ ------- ------- -------|3------ ------- ------- -------|
B|3------------------------------|3------------------------------|
G|4------------------------------|3------------------------------|
D|4------------------------------|5------------------------------|
A|2------------------------------|5------------------------------|
E|-------------------------------|3------------------------------|

D A
e|2------ 2---2-- 2---2-- 2------|0------ 0---0-- 0---0-- 0------|
B|3-------3---3---3---3---3------|2-------2---2---2---2---2------|
G|2-------2---2---2---2---2------|2-------2---2---2---2---2------|
D|0-------0---0---0---0---0------|2-------2---2---2---2---2------|
A|-------------------------------|0-------0---0---0---0---0------|
E|-------------------------------|-------------------------------|
There is nothing I won't do
e|2------ ------- ------- -------|0------ ------- ------- -------|
B|3------------------------------|2------------------------------|
G|2------------------------------|2------------------------------|
D|0------------------------------|2------------------------------|
A|-------------------------------|0------------------------------|
E|-------------------------------|-------------------------------|

D
e|2------ 2---2-- 2---2-- 2---2--|2------ 2------ 2---2-- 2---2--|
B|3-------3---3---3---3---3---3--|3-------3-------3---3---3---3--|
G|2-------2---2---2---2---2---2--|2-------2-------2---2---2---2--|
D|0-------0---0---0---0---0---0--|0-------0-------0---0---0---0--|
A|-------------------------------|-------------------------------|
E|-------------------------------|-------------------------------|
If you need a shoulder to cry on
e|2------ ------- ------- -------|2------ ------- ------- -------|
B|3------------------------------|3------------------------------|
G|2------------------------------|2------------------------------|
D|-------------------------------|-------------------------------|
A|-------------------------------|4------------------------------|
E|-------------------------------|-------------------------------|

Bm Gm
e|2------ 2---2-- 2---2-- 2------|3------ 3---3-- 3---3-- 3------|
B|3-------3---3---3---3---3------|3-------3---3---3---3---3------|
G|4-------4---4---4---4---4------|3-------3---3---3---3---3------|
D|4-------4---4---4---4---4------|5-------5---5---5---5---5------|
A|2-------2---2---2---2---2------|5-------5---5---5---5---5------|
E|-------------------------------|3-------3---3---3---3---3------|
I hope it will be mine
e|2------ ------- ------- -------|3------ ------- ------- -------|
B|3------------------------------|3------------------------------|
G|4------------------------------|3------------------------------|
D|4------------------------------|5------------------------------|
A|2------------------------------|5------------------------------|
E|-------------------------------|3------------------------------|

D A
e|2------ 2---2-- 2---2-- 2------|0------ 0---0-- 0---0-- 0------|
B|3-------3---3---3---3---3------|2-------2---2---2---2---2------|
G|2-------2---2---2---2---2------|2-------2---2---2---2---2------|
D|0-------0---0---0---0---0------|2-------2---2---2---2---2------|
A|-------------------------------|0-------0---0---0---0---0------|
E|-------------------------------|-------------------------------|
Call me tonight and I'll come to you
e|2------ ------- ------- -------|0------ ------- ------- -------|
B|3------------------------------|2------------------------------|
G|2------------------------------|2------------------------------|
D|0------------------------------|2------------------------------|
A|-------------------------------|0------------------------------|
E|-------------------------------|-------------------------------|




D
e|2------ 2------ 2---2-- 2---2--|2------ ------- ------- -------|
B|3-------3-------3---3---3---3--|3------------------------------|
G|2-------2-------2---2---2---2--|2------------------------------|
D|-------------------------------|-------------------------------|
A|-------------------------------|-------------------------------|
E|-------------------------------|-------------------------------|
Anytime at
e|3------ 2------ 0------ ----2--|------- ------- ------- -------|
B|--------------------3----------|-------------------------------|
G|-------------------------------|-------------------------------|
D|-------------------------------|-------------------------------|
A|-------------------------------|-------------------------------|
E|-------------------------------|-------------------------------|

Bm D
e|2------ 2------ 2---2-- 2---2--|------- 2------ 2---2-- 2------|
B|3-------3-------3---3---3---3--|--------3-------3---3---3------|
G|4-------4-------4---4---4---2--|--------2-------2---2---2------|
D|4-------4-------4---4---4---0--|--------0-------0---0---0------|
A|2-------2-------2---2---2------|-------------------------------|
E|-------------------------------|-------------------------------|
all Anytime at
e|------- ------- ------- -------|------- ------- ------- -------|
B|----------------------------3--|-------------------------------|
G|--------------------2---4------|-------------------------------|
D|-------------------------------|-------------------------------|
A|-------------------------------|-------------------------------|
E|-------------------------------|-------------------------------|

A
e|0------ 0---0-- 0---0-- 0---0--|------- 0------ 0---0-- 0------|
B|2-------2---2---2---2---2---2--|--------2-------2---2---2------|
G|2-------2---2---2---2---2---2--|--------2-------2---2---2------|
D|2-------2---2---2---2---2---2--|--------2-------2---2---2------|
A|0-------0---0---0---0---0---0--|--------0-------0---0---0------|
E|-------------------------------|-------------------------------|
all Anytime at
e|------- 0------ ------- ----0--|------- 0------ ----0-- 1---2--|
B|----------------3---2----------|-------------------------------|
G|-------------------------------|-------------------------------|
D|-------------------------------|-------------------------------|
A|-------------------------------|-------------------------------|
E|-------------------------------|-------------------------------|

m G A
e|2------ 2------ 2------ 2------|3------ 3------ 0------ 0------|
B|3-------3-------3-------3------|3-------3-------2-------2------|
G|4-------4-------4-------4------|0-------0-------2-------2------|
D|4-------4-------4-------4------|0-------0-------2-------2------|
A|2-------2-------2-------2------|2-------2-------0-------0------|
E|-------------------------------|3-------3----------------------|
all all you've gotta do is call and I'll be


D
e|2------ 2---2-- 2---2-- 2---2--|2------ 2------ 2---2-- 2---2--|
B|3-------3---3---3---3---3---3--|3-------3-------3---3---3---3--|
G|2-------2---2---2---2---2---2--|2-------2-------2---2---2---2--|
D|0-------0---0---0---0---0---0--|0-------0-------0---0---0---0--|
A|-------------------------------|-------------------------------|
E|-------------------------------|-------------------------------|
there
e|3------ 2------ 0------ ----2--|------- ------- ------- -------|
B|--------------------3----------|-------------------------------|
G|-------------------------------|-------------------------------|
D|-------------------------------|-------------------------------|
A|-------------------------------|-------------------------------|
E|-------------------------------|-------------------------------|



Solo
A
e|------- ------- ------- -------|------- ------- ------- -------|
B|-------------------------------|-------------------------------|
G|-------------------------------|-------------------------------|
D|-------------------------------|-------------------------------|
A|-------------------------------|-------------------------------|
E|0---------------2--------------|3------------------------------|

e|0------ ------- 2------ -------|3------ ------- ------- -------|
B|2---------------3--------------|5------------------------------|
G|0------------------------------|-------------------------------|
D|----------------4--------------|5------------------------------|
A|-------------------------------|-------------------------------|
E|-------------------------------|-------------------------------|



e|------- ------- ------- -------|------- ------- ------- -------|
B|-------------------------------|-------------------------------|
G|-------------------------------|-------------------------------|
D|-------------------------------|-------------------------------|
A|-------------------------------|--------------------0-------1--|
E|0----0----0-----2----2----2----|3------------------------------|

e|0----0- --0---- 2----2- --2----|3------ ------- ----0-- ----0--|
B|2----2----2-----3----3----3----|5-------------------2-------2--|
G|0----0----0--------------------|--------------------2-------2--|
D|----------------4----4----4----|5------------------------------|
A|-------------------------------|-------------------------------|
E|-------------------------------|-------------------------------|


G A
e|------- ------- ------- -------|------- ------- ------- -------|
B|-------------------------------|-------------------------------|
G|-------------------------------|-------------------------------|
D|-------------------------------|-------------------------------|
A|2-------------------2-------3--|4-------------------4-------4--|
E|-------------------------------|-------------------------------|

e|------- ------- ------- -------|------- ------- ------- -------|
B|3-------------------3-------4--|5-------------------5-------5--|
G|4-------------------4-------5--|6-------------------6-------6--|
D|5-------------------5-------6--|7-------------------7-------7--|
A|-------------------------------|-------------------------------|
E|-------------------------------|-------------------------------|


G A
e|------- ------- ------- -------|------- ------- ------- -------|
B|-------------------------------|-------------------------------|
G|-------------------------------|-------------------------------|
D|0----0----0-----0----0----0----|2----2----2-----2----0----2----|
A|-------------------------------|-------------------------------|
E|-------------------------------|-------------------------------|

e|3----3- --3---- 3----3- --3----|0----0- --0---- 0----0- --0----|
B|3----3----3-----3----3----3----|2----2----2-----2----3----2----|
G|0----0----0-----0----0----0----|2----2----2-----2----2----2----|
D|-------------------------------|-------------------------------|
A|-------------------------------|-------------------------------|
E|-------------------------------|-------------------------------|


D X
e|------- ------- ------- -------|------- ------- ------- -------|
B|-------------------------------|-------------------------------|
G|0------------------------------|-------------------------------|
D|--------4-------2---0-------4--|-------------------------------|
A|-------------------------------|-------------------------------|
E|-------------------------------|-------------------------------|

e|3------ 2------ 0------ ----2--|------- ------- ------- -------|
B|3-------3-------3---3-------3--|-------------------------------|
G|2-------2-------2-----------2--|-------------------------------|
D|0-------0-------0-----------0--|-------------------------------|
A|-------------------------------|-------------------------------|
E|-------------------------------|-------------------------------|
Anytime at


Bm D
e|2------ 2------ 2---2-- 2---2--|------- 2------ 2---2-- 2------|
B|3-------3-------3---3---3---3--|--------3-------3---3---3------|
G|4-------4-------4---4---4---2--|--------2-------2---2---2------|
D|4-------4-------4---4---4---0--|--------0-------0---0---0------|
A|2-------2-------2---2---2------|-------------------------------|
E|-------------------------------|-------------------------------|
all Anytime at
e|------- ------- ------- -------|------- ------- ------- -------|
B|----------------------------3--|-------------------------------|
G|--------------------2---4------|-------------------------------|
D|-------------------------------|-------------------------------|
A|-------------------------------|-------------------------------|
E|-------------------------------|-------------------------------|

A
e|0------ 0---0-- 0---0-- 0---0--|------- 0------ 0---0-- 0------|
B|2-------2---2---2---2---2---2--|--------2-------2---2---2------|
G|2-------2---2---2---2---2---2--|--------2-------2---2---2------|
D|2-------2---2---2---2---2---2--|--------2-------2---2---2------|
A|0-------0---0---0---0---0---0--|--------0-------0---0---0------|
E|-------------------------------|-------------------------------|
all Anytime at
e|------- 0------ ------- -------|------- 0------ ----0-- ----1--|
B|----------------3---2----------|-------------------------------|
G|-------------------------------|-------------------------------|
D|-------------------------------|-------------------------------|
A|-------------------------------|-------------------------------|
E|-------------------------------|-------------------------------|

Bm G A
e|2------ 2------ 2------ 2------|3------ 3------ 0------ 0------|
B|3-------3-------3-------3------|3-------3-------2-------2------|
G|4-------4-------4-------4------|0-------0-------2-------2------|
D|4-------4-------4-------4------|0-------0-------2-------2------|
A|2-------2-------2-------2------|2-------2-------0-------0------|
E|-------------------------------|3-------3----------------------|
all all you've gotta do is call and I'll be
e|2------ ------- ------- -------|------- ------- ------- -------|
B|-------------------------------|-------------------------------|
G|-------------------------------|-------------------------------|
D|-------------------------------|-------------------------------|
A|-------------------------------|-------------------------------|
E|-------------------------------|-------------------------------|

D
e|2------ 2---2-- 2---2-- 2---2--|2------ 2------ 2---2-- 2---2--|
B|3-------3---3---3---3---3---3--|3-------3-------3---3---3---3--|
G|2-------2---2---2---2---2---2--|2-------2-------2---2---2---2--|
D|0-------0---0---0---0---0---0--|0-------0-------0---0---0---0--|
A|-------------------------------|-------------------------------|
E|-------------------------------|-------------------------------|
there Anytime at
e|3------ 2------ 0------ ----2--|------- ------- ------- ----3--|
B|--------------------3----------|----------------------------3--|
G|-------------------------------|----------------------------0--|
D|-------------------------------|-------------------------------|
A|-------------------------------|-------------------------------|
E|-------------------------------|-------------------------------|

G A
e|3------ 3---3-- 3---3-- 3---3--|0------ 0---0-- 0---0-- 0------|
B|3-------3---3---3---3---3---3--|2-------2---2---2---2---2------|
G|0-------0---0---0---0---0---0--|2-------2---2---2---2---2------|
D|0-------0---0---0---0---0---0--|2-------2---2---2---2---2------|
A|2-------2---2---2---2---2---2--|0-------0---0---0---0---0------|
E|3-------3---3---3---3---3---3--|-------------------------------|
all all you've gotta do is call and I'll be
e|------- ------- ------- ----5--|------- ------- ------- -------|
B|----------------------------5--|-------------------------------|
G|----------------------------6--|-------------------------------|
D|-------------------------------|-------------------------------|
A|-------------------------------|-------------------------------|
E|-------------------------------|-------------------------------|

D (.
e|2------ 2---2-- 2---2-- 2---2--|2------ 2------ 2------ -------|
B|3-------3---3---3---3---3---3--|3-------3-------3--------------|
G|2-------2---2---2---2---2---2--|2-------2-------2--------------|
D|0-------0---0---0---0---0---0--|0-------0-------0--------------|
A|-------------------------------|-------------------------------|
E|-------------------------------|-------------------------------|
there
e|3------ 2------ 0------ ----2--|------- 10----- 10----- -------|
B|--------------------3----------|--------10------10-------------|
G|-------------------------------|--------11------11-------------|
D|-------------------------------|--------12------12-------------|
A|-------------------------------|--------12------12-------------|
E|-------------------------------|--------10------10-------------|









B Bend
R Release
/ slide up
\ slide down
H hammer-on
P pull-off
~ vibrato
+ harmonic
x Mute note
. - play note like a dot in standard notation
^ - ties two notes together

pjvill

Submitted by pjvill at Wed 30 Nov, 2005 8:58 am

Author: ?
Composer: ?
Publisher: ?
Language: English

Reactions

CommonCrawl [Bot]

Follow Muzikum