The Beatles

The Beatles
And I Love Her Ver 2 (Guitar tab)

-------------------------------------------------------------------

THE BEATLES - AND I LOVE HER (Lennon/McCartney) From A HARD DAY'S
NIGHT album. Released 20th March 1964.


-------------------------------------------------------------------

Tabbed by:PJVillanueva







I give her all my love
That's all I do
And if you saw my love
You'd love her too
I love her

She gives me ev'rything
And tenderly
The kiss my lover brings
She brings to me
And I love her

A love like ours
Could never die
As long as I
Have you near me

Bright are the stars that shine
Dark is the sky
I know this love of mine
Will never die
And I love her

Bright are the stars that shine
Dark is the sky
I know this love of mine
Will never die
And I love her









e|------- ------- ------- -------|------- ------- ------- -------|
B|-------------------------------|-------------------------------|
G|-------------------------------|-------------------------------|
D|-------------------------------|------------------------2---1--|
A|-------------------------------|--------------------2----------|
E|-------------------------------|-------------------------------|


F#m
e|2------ 2------ 2---2-- 2---2--|2------ 2------ 2---2-- 2------|
B|2-------2-------2---2---2---2--|2-------2-------2---2---2------|
G|2-------2-------2---2---2---2--|2-------2-------2---2---2------|
D|4-------4-------4---4---4---4--|4-------4-------4---4---4------|
A|4-------4-------4---4---4---4--|4-------4-------4---4---4------|
E|2-------2-------2---2---2---2--|2-------2-------2---2---2------|

e|------- ------- ------- -------|------- ------- ------- -------|
B|-------------------------------|-------------------------------|
G|-------------------------------|-------------------------------|
D|-------------------------------|------------------------2---1--|
A|4------------------------------|--------------------2----------|
E|-------------------------------|-------------------------------|



E6
e|0------ 0------ 0---0-- 0---0--|0------ 0------ 0---0-- 0------|
B|2-------2-------2---2---2---2--|2-------2-------2---2---2------|
G|1-------1-------1---1---1---1--|1-------1-------1---1---1------|
D|2-------2-------2---2---2---2--|2-------2-------2---2---2------|
A|2-------2-------2---2---2---2--|2-------2-------2---2---2------|
E|0-------0-------0---0---0---0--|0-------0-------0---0---0------|

e|------- ------- ------- -------|------- ------- ------- -------|
B|-------------------------------|-------------------------------|
G|-------------------------------|-------------------------------|
D|-------------------------------|------------------------2---1--|
A|4------------------------------|--------------------2----------|
E|-------------------------------|-------------------------------|


F#m C#m
e|2------ 2------ 2---2-- 2------|4------ 4---4-- 4---4-- 4------|
B|2-------2-------2---2---2------|5-------5---5---5---5---5------|
G|2-------2-------2---2---2------|6-------6---6---6---6---6------|
D|4-------4-------4---4---4------|6-------6---6---6---6---6------|
A|4-------4-------4---4---4------|4-------4---4---4---4---4------|
E|2-------2-------2---2---2------|-------------------------------|
i give her all my love
e|------- ------- ------- -------|------- ------- ------- -------|
B|-------------------------------|-------------------------------|
G|-------------------------------|-------------------------------|
D|-------------------------------|-------------------------------|
A|4------------------------------|-------------------------------|
E|-------------------------------|-------------------------------|


F#m C#m
e|2------ 2------ 2---2-- 2------|4------ 4------ 4---4-- 4------|
B|2-------2-------2---2---2------|5-------5-------5---5---5------|
G|2-------2-------2---2---2------|6-------6-------6---6---6------|
D|4-------4-------4---4---4------|6-------6-------6---6---6------|
A|4-------4-------4---4---4------|4-------4-------4---4---4------|
E|2-------2-------2---2---2------|-------------------------------|
That's all I do

F#m C#m
e|2------ 2------ 2---2-- 2------|4------ 4---4-- 4---4-- 4---0--|
B|2-------2-------2---2---2------|5-------5---5---5---5---5---0--|
G|2-------2-------2---2---2------|6-------6---6---6---6---6------|
D|4-------4-------4---4---4------|6-------6---6---6---6---6------|
A|4-------4-------4---4---4------|4-------4---4---4---4---4------|
E|2-------2-------2---2---2------|-------------------------------|
And If you saw my love

A B
e|0------ 0------ 0---0-- 0------|2------ 2------ 2---2-- 2------|
B|2-------2-------2---2---2------|4-------4-------4---4---4------|
G|2-------2-------2---2---2------|4-------4-------4---4---4------|
D|2-------2-------2---2---2------|4-------4-------4---4---4------|
A|0-------0-------0---0---0------|2-------2-------2---2---2------|
E|-------------------------------|-------------------------------|
You'd love her too I love

E
e|0------ 0------ 0---0-- 0---0--|0------ 0------ 0---0-- 0------|
B|0-------0-------0---0---0---0--|0-------0-------0---0---0------|
G|1-------1-------1---1---1---1--|1-------1-------1---1---1------|
D|2-------2-------2---2---2---2--|2-------2-------2---2---2------|
A|2-------2-------2---2---2---2--|2-------2-------2---2---2------|
E|0-------0-------0---0---0---0--|0-------0-------0---0---0------|
her

F#m C#m
e|2------ 2------ 2---2-- 2------|4------ 4---4-- 4---4-- 4------|
B|2-------2-------2---2---2------|5-------5---5---5---5---5------|
G|2-------2-------2---2---2------|6-------6---6---6---6---6------|
D|4-------4-------4---4---4------|6-------6---6---6---6---6------|
A|4-------4-------4---4---4------|4-------4---4---4---4---4------|
E|2-------2-------2---2---2------|-------------------------------|
She gives me ev'rything
e|------- -9----- ------- -9-----|------- 9------ ------- 9------|
B|----10------10------10------10-|----9-------9-------9-------9--|
G|11--------------11-------------|9---------------9--------------|
D|-------------------------------|-------------------------------|
A|-------------------------------|-------------------------------|
E|-------------------------------|-------------------------------|


F#m C#m
e|2------ 2------ 2---2-- 2------|4------ 4------ 4---4-- 4------|
B|2-------2-------2---2---2------|5-------5-------5---5---5------|
G|2-------2-------2---2---2------|6-------6-------6---6---6------|
D|4-------4-------4---4---4------|6-------6-------6---6---6------|
A|4-------4-------4---4---4------|4-------4-------4---4---4------|
E|2-------2-------2---2---2------|-------------------------------|
And tenderly
e|------- -9----- ------- -9-----|------- 9------ ------- 9------|
B|----10------10------10------10-|----9-------9-------9-------9--|
G|11--------------11-------------|9---------------9--------------|
D|-------------------------------|-------------------------------|
A|-------------------------------|-------------------------------|
E|-------------------------------|-------------------------------|


F#m C#m
e|2------ 2------ 2---2-- 2------|4------ 4---4-- 4---4-- 4------|
B|2-------2-------2---2---2------|5-------5---5---5---5---5------|
G|2-------2-------2---2---2------|6-------6---6---6---6---6------|
D|4-------4-------4---4---4------|6-------6---6---6---6---6------|
A|4-------4-------4---4---4------|4-------4---4---4---4---4------|
E|2-------2-------2---2---2------|-------------------------------|
The kiss my lover brings
e|------- -9----- ------- -9-----|------- 9------ ------- 9------|
B|----10------10------10------10-|----9-------9-------9-------9--|
G|11--------------11-------------|9---------------9--------------|
D|-------------------------------|-------------------------------|
A|-------------------------------|-------------------------------|
E|-------------------------------|-------------------------------|


A B
e|0------ 0------ 0---0-- 0------|2------ 2------ 2---2-- 2------|
B|2-------2-------2---2---2------|4-------4-------4---4---4------|
G|2-------2-------2---2---2------|4-------4-------4---4---4------|
D|2-------2-------2---2---2------|4-------4-------4---4---4------|
A|0-------0-------0---0---0------|2-------2-------2---2---2------|
E|-------------------------------|-------------------------------|
She brings to me and I love
e|------- -9----- ------- -9-----|------- 11----- ------- 11-----|
B|----10------10------10------10-|----10------10------10------10-|
G|-9---------------9-------------|11--------------11-------------|
D|-------------------------------|-------------------------------|
A|-------------------------------|-------------------------------|
E|-------------------------------|-------------------------------|


E
e|0------ 0------ 0---0-- 0---0--|0------ 0------ 0---0-- 0------|
B|0-------0-------0---0---0---0--|0-------0-------0---0---0------|
G|1-------1-------1---1---1---1--|1-------1-------1---1---1------|
D|2-------2-------2---2---2---2--|2-------2-------2---2---2------|
A|2-------2-------2---2---2---2--|2-------2-------2---2---2------|
E|0-------0-------0---0---0---0--|0-------0-------0---0---0------|
her
e|------- 9------ ------- 9------|------- 9------ ------- -------|
B|----9-------9-------9-------9--|----9-------9-----------9------|
G|9---------------9--------------|9---------------9--------------|
D|-------------------------------|-------------------------------|
A|-------------------------------|-------------------------------|
E|-------------------------------|-------------------------------|


C#m B
e|4------ 4------ 4---4-- 4------|7------ 7------ 7---7-- 7------|
B|5-------5-------5---5---5------|7-------7-------7---7---7------|
G|6-------6-------6---6---6------|8-------8-------8---8---8------|
D|6-------6-------6---6---6------|9-------9-------9---9---9------|
A|4-------4-------4---4---4------|9-------9-------9---9---9------|
E|-------------------------------|7-------7-------7---7---7------|
A love like ours
e|4------ ------- ------- -------|2------ ------- ------- -------|
B|5------------------------------|4------------------------------|
G|6------------------------------|4------------------------------|
D|6------------------------------|4------------------------------|
A|4------------------------------|2------------------------------|
E|-------------------------------|-------------------------------|


C#m G#m
e|4------ 4------ 4---4-- 4------|4------ 4------ 4---4-- 4------|
B|5-------5-------5---5---5------|4-------4-------4---4---4------|
G|6-------6-------6---6---6------|4-------4-------4---4---4------|
D|6-------6-------6---6---6------|6-------6-------6---6---6------|
A|4-------4-------4---4---4------|6-------6-------6---6---6------|
E|-------------------------------|4-------4-------4---4---4------|
Could never dye
e|4------ ------- ------- -------|4------ ------- ------- -------|
B|5------------------------------|4------------------------------|
G|6------------------------------|4------------------------------|
D|6------------------------------|6------------------------------|
A|4------------------------------|6------------------------------|
E|-------------------------------|4------------------------------|


C#m G#m
e|4------ 4------ 4---4-- 4------|4------ 4------ 4---4-- 4------|
B|5-------5-------5---5---5------|4-------4-------4---4---4------|
G|6-------6-------6---6---6------|4-------4-------4---4---4------|
D|6-------6-------6---6---6------|6-------6-------6---6---6------|
A|4-------4-------4---4---4------|6-------6-------6---6---6------|
E|-------------------------------|4-------4-------4---4---4------|
As long as I have you near
e|4------ ------- ------- -------|4------ ------- ------- -------|
B|5------------------------------|4------------------------------|
G|6------------------------------|4------------------------------|
D|6------------------------------|6------------------------------|
A|4------------------------------|6------------------------------|
E|-------------------------------|4------------------------------|



B B7
e|7------ 7------ 7---7-- 7------|2------ 2------ 2------ 2------|
B|7-------7-------7---7---7------|0-------0-------0-------0------|
G|8-------8-------8---8---8------|2-------2-------2-------2------|
D|9-------9-------9---9---9------|1-------1-------1-------1------|
A|9-------9-------9---9---9------|2-------2-------2-------2------|
E|7-------7-------7---7---7------|-------------------------------|
me
e|2------ ------- ------- -------|2------ ------- ------- -------|
B|4------------------------------|4------------------------------|
G|4------------------------------|4------------------------------|
D|4------------------------------|4-----------------------2---1--|
A|2------------------------------|2-------------------2----------|
E|-------------------------------|-------------------------------|


F#m C#m
e|2------ 2------ 2---2-- 2------|4------ 4---4-- 4---4-- 4------|
B|2-------2-------2---2---2------|5-------5---5---5---5---5------|
G|2-------2-------2---2---2------|6-------6---6---6---6---6------|
D|4-------4-------4---4---4------|6-------6---6---6---6---6------|
A|4-------4-------4---4---4------|4-------4---4---4---4---4------|
E|2-------2-------2---2---2------|-------------------------------|
Bright are the stars that shine
e|------- ------- ------- -------|------- 9------ ------- 9------|
B|-------------------------------|----9-------9-------9-------9--|
G|-------------------------------|9---------------9--------------|
D|-------------------------------|-------------------------------|
A|4------------------------------|-------------------------------|
E|-------------------------------|-------------------------------|


F#m C#m
e|2------ 2------ 2---2-- 2------|4------ 4------ 4---4-- 4------|
B|2-------2-------2---2---2------|5-------5-------5---5---5------|
G|2-------2-------2---2---2------|6-------6-------6---6---6------|
D|4-------4-------4---4---4------|6-------6-------6---6---6------|
A|4-------4-------4---4---4------|4-------4-------4---4---4------|
E|2-------2-------2---2---2------|-------------------------------|
Dark is the sky
e|------- -9----- ------- -9-----|------- 9------ ------- 9------|
B|----10------10------10------10-|----9-------9-------9-------9--|
G|11--------------11-------------|9---------------9--------------|
D|-------------------------------|-------------------------------|
A|-------------------------------|-------------------------------|
E|-------------------------------|-------------------------------|


F#m C#m
e|2------ 2------ 2---2-- 2------|4------ 4---4-- 4---4-- 4------|
B|2-------2-------2---2---2------|5-------5---5---5---5---5------|
G|2-------2-------2---2---2------|6-------6---6---6---6---6------|
D|4-------4-------4---4---4------|6-------6---6---6---6---6------|
A|4-------4-------4---4---4------|4-------4---4---4---4---4------|
E|2-------2-------2---2---2------|-------------------------------|
I know this love of mine
e|------- -9----- ------- -9-----|------- 9------ ------- 9------|
B|----10------10------10------10-|----9-------9-------9-------9--|
G|11--------------11-------------|9---------------9--------------|
D|-------------------------------|-------------------------------|
A|-------------------------------|-------------------------------|
E|-------------------------------|-------------------------------|


A B
e|0------ 0------ 0---0-- 0------|2------ 2------ 2---2-- 2------|
B|2-------2-------2---2---2------|4-------4-------4---4---4------|
G|2-------2-------2---2---2------|4-------4-------4---4---4------|
D|2-------2-------2---2---2------|4-------4-------4---4---4------|
A|0-------0-------0---0---0------|2-------2-------2---2---2------|
E|-------------------------------|-------------------------------|
will never dye and I love
e|------- -9----- ------- -9-----|------- 11----- ------- 11-----|
B|----10------10------10------10-|----10------10------10------10-|
G|-9---------------9-------------|11--------------11-------------|
D|-------------------------------|-------------------------------|
A|-------------------------------|-------------------------------|
E|-------------------------------|-------------------------------|


E
e|0------ 0------ 0---0-- 0---0--|0------ 0------ 0---0-- 0------|
B|0-------0-------0---0---0---0--|0-------0-------0---0---0------|
G|1-------1-------1---1---1---1--|1-------1-------1---1---1------|
D|2-------2-------2---2---2---2--|2-------2-------2---2---2------|
A|2-------2-------2---2---2---2--|2-------2-------2---2---2------|
E|0-------0-------0---0---0---0--|0-------0-------0---0---0------|
her
e|------- 9------ ------- 9------|------- 9------ ------- -------|
B|----9-------9-------9-------9--|----9-------9-----------9------|
G|9---------------9--------------|9---------------9--------------|
D|-------------------------------|-------------------------------|
A|-------------------------------|-------------------------------|
E|-------------------------------|-------------------------------|


Solo

Gm Dm
e|3------ 3------ 3---3-- 3------|1------ 1------ 1---1-- 1------|
B|3-------3-------3---3---3------|3-------3-------3---3---3------|
G|3-------3-------3---3---3------|2-------2-------2---2---2------|
D|5-------5-------5---5---5------|0-------0-------0---0---0------|
A|5-------5-------5---5---5------|-------------------------------|
E|3-------3-------3---3---3------|-------------------------------|

e|------- ------- ------- -------|------- ------- ------- -------|
B|-----------------------------5-|----3------/----6--------------|
G|------------0---2---3----------|-------------------------------|
D|-------------------------------|-------------------------------|
A|-------------------------------|-------------------------------|
E|-------------------------------|-------------------------------|


Gm Dm
e|3------ 3------ 3---3-- 3------|1------ 1------ 1---1-- 1------|
B|3-------3-------3---3---3------|3-------3-------3---3---3------|
G|3-------3-------3---3---3------|2-------2-------2---2---2------|
D|5-------5-------5---5---5------|0-------0-------0---0---0------|
A|5-------5-------5---5---5------|-------------------------------|
E|3-------3-------3---3---3------|-------------------------------|

e|------- ------- ------- -------|------- ------- ------- -------|
B|-------------------------------|5-----5\3----------------------|
G|--------0-------2-------3------|-------------------------------|
D|-------------------------------|-------------------------------|
A|-------------------------------|-------------------------------|
E|-------------------------------|-------------------------------|


Gm Dm
e|3------ 3------ 3---3-- 3------|1------ 1------ 1---1-- 1------|
B|3-------3-------3---3---3------|3-------3-------3---3---3------|
G|3-------3-------3---3---3------|2-------2-------2---2---2------|
D|5-------5-------5---5---5------|0-------0-------0---0---0------|
A|5-------5-------5---5---5------|-------------------------------|
E|3-------3-------3---3---3------|-------------------------------|

e|------- ------- ------- -------|------- ------- ------- -------|
B|----------------------------5--|--------3---/---6--------------|
G|--------0-------2---3----------|-------------------------------|
D|-------------------------------|-------------------------------|
A|-------------------------------|-------------------------------|
E|-------------------------------|-------------------------------|


Bb C
e|1------ 1------ 1---1-- 1------|3------ 3------ 3---3-- 3------|
B|3-------3-------3---3---3------|5-------5-------5---5---5------|
G|3-------3-------3---3---3------|5-------5-------5---5---5------|
D|3-------3-------3---3---3------|5-------5-------5---5---5------|
A|1-------1-------1---1---1------|3-------3-------3---3---3------|
E|-------------------------------|-------------------------------|

e|------- ------- ------- -------|------- ------- ------- -------|
B|--------6----------------------|-------------------------------|
G|----------------7--------------|-------------------------------|
D|------------------------8------|7-----7\5----------------------|
A|-------------------------------|--------------------3-------3--|
E|-------------------------------|-------------------------------|


F6
e|1------ 1------ 1---1-- 1---1--|1------ 1------ 1---1-- 1------|
B|3-------3-------3---3---3---3--|3-------3-------3---3---3------|
G|2-------2-------2---2---2---2--|2-------2-------2---2---2------|
D|x-------x-------x---x---x---x--|x-------x-------x---x---x------|
A|3-------3-------3---3---3---3--|3-------3-------3---3---3------|
E|1-------1-------1---1---1---1--|1-------1-------1---1---1------|

e|------- ------- ------- -------|------- ------- ------- -------|
B|-------------------------------|-------------------------------|
G|-------------------------------|-------------------------------|
D|--------7----------------------|-------------------------------|
A|5------------------------------|------------3-------0----------|
E|-------------------------------|------------------------3---1-1/


Gm Dm
e|3------ 3------ 3---3-- 3------|5------ 5---5-- 5---5-- 5------|
B|3-------3-------3---3---3------|6-------6---6---6---6---6------|
G|3-------3-------3---3---3------|7-------7---7---7---7---7------|
D|5-------5-------5---5---5------|7-------7---7---7---7---7------|
A|5-------5-------5---5---5------|5-------5---5---5---5---5------|
E|3-------3-------3---3---3------|-------------------------------|
Bright are the stars that shine
e|------- ------- ------- -------|------- 10----- ------- 10-----|
B|-------------------------------|----10------10------10------10-|
G|-------------------------------|10--------------10-------------|
D|-------------------------------|-------------------------------|
A|-------------------------------|-------------------------------|
E|3------------------------------|-------------------------------|


Gm Dm
e|3------ 3------ 3---3-- 3------|5------ 5---5-- 5---5-- 5------|
B|3-------3-------3---3---3------|6-------6---6---6---6---6------|
G|3-------3-------3---3---3------|7-------7---7---7---7---7------|
D|5-------5-------5---5---5------|7-------7---7---7---7---7------|
A|5-------5-------5---5---5------|5-------5---5---5---5---5------|
E|3-------3-------3---3---3------|-------------------------------|
Dark is the sky
e|------- 10----- ------- 10-----|------- 10----- ------- 10-----|
B|----11------11------11------11-|----10------10------10------10-|
G|12--------------12-------------|10--------------10-------------|
D|-------------------------------|-------------------------------|
A|-------------------------------|-------------------------------|
E|-------------------------------|-------------------------------|


Gm Dm
e|3------ 3------ 3---3-- 3------|5------ 5---5-- 5---5-- 5------|
B|3-------3-------3---3---3------|6-------6---6---6---6---6------|
G|3-------3-------3---3---3------|7-------7---7---7---7---7------|
D|5-------5-------5---5---5------|7-------7---7---7---7---7------|
A|5-------5-------5---5---5------|5-------5---5---5---5---5------|
E|3-------3-------3---3---3------|-------------------------------|
I know this love of mine
e|------- 10----- ------- 10-----|------- 10----- ------- 10-----|
B|----11------11------11------11-|----10------10------10------10-|
G|12--------------12-------------|10--------------10-------------|
D|-------------------------------|-------------------------------|
A|-------------------------------|-------------------------------|
E|-------------------------------|-------------------------------|


Bb C
e|1------ 1------ 1---1-- 1------|3------ 3------ 3---3-- 3------|
B|3-------3-------3---3---3------|5-------5-------5---5---5------|
G|3-------3-------3---3---3------|5-------5-------5---5---5------|
D|3-------3-------3---3---3------|5-------5-------5---5---5------|
A|1-------1-------1---1---1------|3-------3-------3---3---3------|
E|-------------------------------|-------------------------------|
will never dye and I love
e|------- 10----- ------- 10-----|------- 12----- ------- 12-----|
B|----11------11------11------11-|----11------11------11------11-|
G|10--------------10-------------|12--------------12-------------|
D|-------------------------------|-------------------------------|
A|-------------------------------|-------------------------------|
E|-------------------------------|-------------------------------|


F6
e|1------ 1------ 1---1-- 1---1--|1------ 1------ 1---1-- 1------|
B|3-------3-------3---3---3---3--|3-------3-------3---3---3------|
G|2-------2-------2---2---2---2--|2-------2-------2---2---2------|
D|x-------x-------x---x---x---x--|x-------x-------x---x---x------|
A|3-------3-------3---3---3---3--|3-------3-------3---3---3------|
E|1-------1-------1---1---1---1--|1-------1-------1---1---1------|
her
e|------- 10----- ------- 10-----|------- 10----- ------- -------|
B|----10------10------10------10-|----10------10-----------------|
G|10--------------10-------------|10--------------10-------------|
D|-------------------------------|------------------------3---2--|
A|-------------------------------|--------------------3----------|
E|-------------------------------|-------------------------------|


Gm
e|3------ 3------ 3---3-- 3---3--|3------ 3------ 3---3-- 3------|
B|3-------3-------3---3---3---3--|3-------3-------3---3---3------|
G|3-------3-------3---3---3---3--|3-------3-------3---3---3------|
D|5-------5-------5---5---5---5--|5-------5-------5---5---5------|
A|5-------5-------5---5---5---5--|5-------5-------5---5---5------|
E|3-------3-------3---3---3---3--|3-------3-------3---3---3------|

e|------- ------- ------- -------|------- ------- ------- -------|
B|-------------------------------|-------------------------------|
G|-------------------------------|-------------------------------|
D|-------------------------------|------------------------3---2--|
A|5------------------------------|--------------------3----------|
E|-------------------------------|-------------------------------|



F6
e|1------ 1------ 1---1-- 1---1--|1------ 1------ 1---1-- 1------|
B|3-------3-------3---3---3---3--|3-------3-------3---3---3------|
G|2-------2-------2---2---2---2--|2-------2-------2---2---2------|
D|x-------x-------x---x---x---x--|x-------x-------x---x---x------|
A|3-------3-------3---3---3---3--|3-------3-------3---3---3------|
E|1-------1-------1---1---1---1--|1-------1-------1---1---1------|

e|------- ------- ------- -------|------- ------- ------- -------|
B|-------------------------------|-------------------------------|
G|-------------------------------|-------------------------------|
D|-------------------------------|------------------------3---2--|
A|5------------------------------|--------------------3----------|
E|-------------------------------|-------------------------------|


Gm
e|3------ 3------ 3---3-- 3---3--|3------ 3------ 3---3-- 3------|
B|3-------3-------3---3---3---3--|3-------3-------3---3---3------|
G|3-------3-------3---3---3---3--|3-------3-------3---3---3------|
D|5-------5-------5---5---5---5--|5-------5-------5---5---5------|
A|5-------5-------5---5---5---5--|5-------5-------5---5---5------|
E|3-------3-------3---3---3---3--|3-------3-------3---3---3------|

e|------- ------- ------- -------|------- ------- ------- -------|
B|-------------------------------|-------------------------------|
G|-------------------------------|-------------------------------|
D|-------------------------------|------------------------3---2--|
A|5------------------------------|--------------------3----------|
E|-------------------------------|-------------------------------|

(.
D
e|2------ ------- ------- -------|------- ------- ------- -------|
B|3------------------------------|-------------------------------|
G|2------------------------------|-------------------------------|
D|0------------------------------|-------------------------------|
A|-------------------------------|-------------------------------|
E|-------------------------------|-------------------------------|

e|------- ------- ------- -------|------- ------- ------- -------|
B|-------------------------------|-------------------------------|
G|-------------------------------|-------------------------------|
D|0------------------------------|-------------------------------|
A|0------------------------------|-------------------------------|
E|-------------------------------|-------------------------------|









B Bend
R Release
/ slide up
\ slide down
H hammer-on
P pull-off
~ vibrato
+ harmonic
x Mute note
. - play note like a dot in standard notation
^ - ties two notes together
(. Pause

pjvill

Submitted by pjvill at Wed 30 Nov, 2005 8:55 am

Author: ?
Composer: ?
Publisher: ?
Language: English

Reactions

CommonCrawl [Bot]

Follow Muzikum