The Beatles
A Hard Day's Night Ver 3 (Guitar tab)

-----------------------------------------------------------------------

THE BEATLES - A HARD DAY'S NIGHT (Lennon/McCartney) From A HARD DAY'S
NIGHT album, Released March 20th 1964.


-----------------------------------------------------------------------

Tabbed by:PJVillanueva






It's been a hard day's night, and I been working like a dog
It's been a hard day's night, I should be sleeping like a log
But when I get home to you I'll find the things that you do
Will make me feel alright

You know I work all day to get you money to buy you things
And it's worth it just to hear you say you're going to give me everything
So why on earth should I moan, 'cause when I get you alone
You know I feel ok

When I'm home everything seems to be right
When I'm home feeling you holding me tight, tight, yeah

It's been a hard day's night, and I been working like a dog
It's been a hard day's night, I should be sleeping like a log
But when I get home to you I'll find the things that you do
Will make me feel alright

Owwww

So why on earth should I moan, 'cause when I get you alone
You know I feel ok

When I'm home everything seems to be right
When I'm home feeling you holding me tight, tight, yeah

It's been a hard day's night, and I been working like a dog
It's been a hard day's night, I should be sleeping like a log
But when I get home to you I'll find the things that you do
Will make me feel alright

You know I feel alright
You know I feel alright...




e|3--
B|1--
G|2--
D|0--
A|0--
E|---


These are the notes I hear in the opening chord.
I think this chord could have the following names, but only D will
match as a dominant (V) to the tonic (I) of the song G.




D7sus4 Gadd9sus4 (no 3rd) F6/9 (no tonic)

e|3--- 4th e|3-- Tonic e|3-- 9th
B|1--- b7th B|1-- 4th B|1-- 5th
G|2--- 5th G|2-- 9th G|2-- 3rd
D|0--- Tonic D|0-- 5th D|0-- 6th
A|0--- 5th A|0-- 9th A|0-- 3rd
E|---- E|--- E|---




(.

D7sus4
e|3------ ------- ------- -------|------- ------- ------- -------|
B|1------------------------------|-------------------------------|
G|2------------------------------|-------------------------------|
D|0------------------------------|-------------------------------|
A|0------------------------------|-------------------------------|
E|-------------------------------|-------------------------------|
It's been a

G C G
e|3------ 3------ 3---3-- 3---3--|3------ 3------ 3---3-- 3---3--|
B|3-------3-------1---1---1---3--|3-------3-------3---3---3---3--|
G|0-------0-------0---0---0---0--|0-------0-------0---0---0---0--|
D|0-------0-------2---2---2---0--|0-------0-------0---0---0---0--|
A|2-------2-------3---3---3---2--|2-------2-------2---2---2---2--|
E|3-------3-------------------3--|3-------3-------3---3---3---3--|
hard day's night and I've been

e|------- 3------ ----3-- ----3--|----3-- 3------ 3------ 3------|
B|--------3-----------0-------3--|----3---3-------3-------3------|
G|--------0-----------0-------0--|----0---0-------0-------0------|
D|-------------------------------|-------------------------------|
A|-------------------------------|-------------------------------|
E|-------------------------------|-------------------------------|


F9 G
e|3------ 3------ 3---3-- 3---3--|3------ 3------ 3---3-- 3---3--|
B|1-------1-------1---1---1---1--|3-------3-------3---3---3---3--|
G|2-------2-------2---2---2---2--|0-------0-------0---0---0---0--|
D|1-------1-------1---1---1---1--|0-------0-------0---0---0---0--|
A|3-------3-------3---3---3---3--|2-------2-------2---2---2---2--|
E|1-------1-------1---1---1---1--|3-------3-------3---3---3---3--|
working like a dog It's been a

e|1------ 1------ ----1-- ----1--|3---3-- ----3-- ----3-- ----3--|
B|1-------1-----------1-------1--|3---3-------3-------3-------3--|
G|2-------2-----------2-------2--|0---0-------0-------0-------0--|
D|-------------------------------|-------------------------------|
A|-------------------------------|-------------------------------|
E|-------------------------------|-------------------------------|


G C G
e|3------ 3------ 3---3-- 3---3--|3------ 3------ 3---3-- 3---3--|
B|3-------3-------1---1---1---3--|3-------3-------3---3---3---3--|
G|0-------0-------0---0---0---0--|0-------0-------0---0---0---0--|
D|0-------0-------2---2---2---0--|0-------0-------0---0---0---0--|
A|2-------2-------3---3---3---2--|2-------2-------2---2---2---2--|
E|3-------3-------------------3--|3-------3-------3---3---3---3--|
hard day's night I should be

e|3------ 3------ ----3-- ----3--|------- 3------ 3---3-- 3------|
B|0-------0-----------0-------3--|--------3-------3---3---3------|
G|0-------0-----------0-------0--|--------0-------0---0---0------|
D|-------------------------------|-------------------------------|
A|-------------------------------|-------------------------------|
E|-------------------------------|-------------------------------|


F9 G
e|3------ 3------ 3---3-- 3---3--|3------ 3------ 3---3-- 3---3--|
B|1-------1-------1---1---1---1--|3-------3-------3---3---3---3--|
G|2-------2-------2---2---2---2--|0-------0-------0---0---0---0--|
D|1-------1-------1---1---1---1--|0-------0-------0---0---0---0--|
A|3-------3-------3---3---3---3--|2-------2-------2---2---2---2--|
E|1-------1-------1---1---1---1--|3-------3-------3---3---3---3--|
sleeping like a log But when I

e|1------ ----1-- ----1-- ----1--|3---3-- ----3-- ----3-- ----3--|
B|1-----------1-------1-------1--|3---3-------3-------3-------3--|
G|2-----------2-------2-------2--|0---0-------0-------0-------0--|
D|-------------------------------|-------------------------------|
A|-------------------------------|-------------------------------|
E|-------------------------------|-------------------------------|


C D
e|0------ 0------ 0---0-- 0---0--|2------ 2------ 2---2-- 2---2--|
B|1-------1-------1---1---1---1--|3-------3-------3---3---3---3--|
G|0-------0-------0---0---0---0--|2-------2-------2---2---2---2--|
D|2-------2-------2---2---2---2--|0-------0-------0---0---0---0--|
A|3-------3-------3---3---3---3--|-------------------------------|
E|3-------3-------3---3---3---3--|-------------------------------|
get home to you I'll find the things that you do will make me

e|------- ----0-- ----0-- ----0--|------- ----2-- ----2-- ----2--|
B|------------1-------1-------1--|------------3-------3-------3--|
G|------------0-------0-------0--|------------2-------2-------2--|
D|-------------------------------|-------------------------------|
A|-------------------------------|-------------------------------|
E|-------------------------------|-------------------------------|


G C G
e|3------ 3------ 3---3-- 3---3--|3------ 3---3-- ----3-- 3---3--|
B|3-------3-------1---1---1---3--|3-------3---3-------3---3---3--|
G|0-------0-------0---0---0---0--|0-------0---2-------2---2---2--|
D|0-------0-------2---2---2---0--|0-------0---0-------0---0---0--|
A|2-------2-------3---3---3---2--|2-------2----------------------|
E|3-------3-------------------3--|3-------3----------------------|
feel all.........right You know I

e|------- ----3-- ----3-- ----3--|----3-- ----3-- ----3-- ----3--|
B|------------3-------3-------3--|----3-------3-------3-------3--|
G|------------0-------0-------0--|----0-------0-------0-------0--|
D|-------------------------------|-------------------------------|
A|-------------------------------|-------------------------------|
E|-------------------------------|-------------------------------|


G C G
e|3------ 3------ 3---3-- 3---3--|3------ 3------ 3---3-- 3---3--|
B|3-------3-------1---1---1---3--|3-------3-------3---3---3---3--|
G|0-------0-------0---0---0---0--|0-------0-------0---0---0---0--|
D|0-------0-------2---2---2---0--|0-------0-------0---0---0---0--|
A|2-------2-------3---3---3---2--|2-------2-------2---2---2---2--|
E|3-------3-------------------3--|3-------3-------3---3---3---3--|
work all day to get you

e|3------ 3------ ----3-- ----3--|----3-- ----3-- ----3-- ----3--|
B|3-------3-----------3-------3--|----3-------3-------3-------3--|
G|0-------0-----------0-------0--|----0-------0-------0-------0--|
D|-------------------------------|-------------------------------|
A|-------------------------------|-------------------------------|
E|-------------------------------|-------------------------------|


F9 G
e|3------ 3------ 3---3-- 3---3--|3------ 3------ 3---3-- 3---3--|
B|1-------1-------1---1---1---1--|3-------3-------3---3---3---3--|
G|2-------2-------2---2---2---2--|0-------0-------0---0---0---0--|
D|1-------1-------1---1---1---1--|0-------0-------0---0---0---0--|
A|3-------3-------3---3---3---3--|2-------2-------2---2---2---2--|
E|1-------1-------1---1---1---1--|3-------3-------3---3---3---3--|
money to buy you things and it's

e|1------ 1------ ----1-- ----1--|3------ 3---3-- ----3-- ----3--|
B|1-------1-----------1-------1--|3-------3---3-------3-------3--|
G|2-------2-----------2-------2--|0-------0---0-------0-------0--|
D|-------------------------------|-------------------------------|
A|-------------------------------|-------------------------------|
E|-------------------------------|-------------------------------|


G C G
e|3------ 3------ 3---3-- 3---3--|3------ 3------ 3---3-- 3---3--|
B|3-------3-------1---1---1---3--|3-------3-------3---3---3---3--|
G|0-------0-------0---0---0---0--|0-------0-------0---0---0---0--|
D|0-------0-------2---2---2---0--|0-------0-------0---0---0---0--|
A|2-------2-------3---3---3---2--|2-------2-------2---2---2---2--|
E|3-------3-------------------3--|3-------3-------3---3---3---3--|
worth it just to hear you say you're gonna

e|3------ 3------ 3---3-- ----3--|------- 3------ 3------ 3------|
B|3-------3-------3---3-------3--|--------3-------3-------3------|
G|0-------0-------0---0-------0--|--------0-------0-------0------|
D|-------------------------------|-------------------------------|
A|-------------------------------|-------------------------------|
E|-------------------------------|-------------------------------|


F9 G
e|3------ 3------ 3---3-- 3---3--|3------ 3------ 3---3-- 3---3--|
B|1-------1-------1---1---1---1--|3-------3-------3---3---3---3--|
G|2-------2-------2---2---2---2--|0-------0-------0---0---0---0--|
D|1-------1-------1---1---1---1--|0-------0-------0---0---0---0--|
A|3-------3-------3---3---3---3--|2-------2-------2---2---2---2--|
E|1-------1-------1---1---1---1--|3-------3-------3---3---3---3--|
give me everything So why on

e|1------ 1------ ----1-- ----3--|3---3-- 3---3-- ----3-- 3------|
B|1-------1-----------1-------3--|3---3---3---3-------3---3------|
G|2-------2-----------2-------0--|0---0---0---0-------0---0------|
D|-------------------------------|-------------------------------|
A|-------------------------------|-------------------------------|
E|-------------------------------|-------------------------------|


C D
e|0------ 0------ 0---0-- 0---0--|2------ 2------ 2---2-- 2---2--|
B|1-------1-------1---1---1---1--|3-------3-------3---3---3---3--|
G|0-------0-------0---0---0---0--|2-------2-------2---2---2---2--|
D|2-------2-------2---2---2---2--|0-------0-------0---0---0---0--|
A|3-------3-------3---3---3---3--|-------------------------------|
E|3-------3-------3---3---3---3--|-------------------------------|
earth should I moan 'cause when I get you alone you know I

e|0------ 0---0-- ----0-- ----0--|2------ ----2-- ----2-- ----2--|
B|1-------1---1-------1-------1--|3-----------3-------3-------3--|
G|0-------0---0-------0-------0--|2-----------2-------2-------2--|
D|-------------------------------|-------------------------------|
A|-------------------------------|-------------------------------|
E|-------------------------------|-------------------------------|


G C G
e|3------ 3------ 3---3-- 3---3--|3------ 3------ 3---3-- 3---3--|
B|3-------3-------1---1---1---3--|3-------3-------3---3---3---3--|
G|0-------0-------0---0---0---0--|0-------0-------0---0---0---0--|
D|0-------0-------2---2---2---0--|0-------0-------0---0---0---0--|
A|2-------2-------3---3---3---2--|2-------2-------2---2---2---2--|
E|3-------3-------------------3--|3-------3-------3---3---3---3--|
feel O. K. When I'm home

e|------- 3------ ----3-- ----3--|----3-- ----3-- ----3-- ----2--|
B|--------3-----------3-------3--|----3-------3-------3-------3--|
G|--------0-----------0-------0--|----0-------0-------0-------4--|
D|-------------------------------|-------------------------------|
A|-------------------------------|-------------------------------|
E|-------------------------------|-------------------------------|


Bm Em
e|2------ 2---2-- 2---2-- 2---0--|0------ 0------ 0---0-- 0---0--|
B|3-------3---3---3---3---3---0--|0-------0-------0---0---0---0--|
G|4-------4---4---4---4---4---0--|0-------0-------0---0---0---0--|
D|4-------4---4---4---4---4------|2-------2-------2---2---2---2--|
A|2-------2---2---2---2---2------|2-------2-------2---2---2---2--|
E|-------------------------------|0-------0-------0---0---0---0--|
everything seems to be

e|------- ----2-- ----2-- ----0--|------- ----0-- ----0-- ----0--|
B|------------3-------3-------0--|------------0-------0-------0--|
G|------------4-------4-------0--|------------0-------0-------0--|
D|-------------------------------|-------------------------------|
A|-------------------------------|-------------------------------|
E|-------------------------------|-------------------------------|


Bm
e|2------ 2------ 2---2-- 2---2--|2------ 2------ 2---2-- 2---3--|
B|3-------3-------3---3---3---3--|3-------3-------3---3---3---3--|
G|4-------4-------4---4---4---4--|4-------4-------4---4---4---0--|
D|4-------4-------4---4---4---4--|4-------4-------4---4---4---0--|
A|2-------2-------2---2---2---2--|2-------2-------2---2---2---2--|
E|-------------------------------|----------------------------3--|
right When I'm home

e|2------ 2---2-- ----2-- ----2--|------- 2------ ----2-- ----2--|
B|3-------3---3-------3-------3--|--------3-----------3-------3--|
G|4-------4---4-------4-------4--|--------4-----------4-------4--|
D|-------------------------------|-------------------------------|
A|-------------------------------|-------------------------------|
E|-------------------------------|-------------------------------|


G Em
e|3------ 3------ 3---3-- 3---0--|0------ 0------ 0---0-- 0---0--|
B|3-------3-------3---3---3---0--|0-------0-------0---0---0---0--|
G|0-------0-------0---0---0---0--|0-------0-------0---0---0---0--|
D|0-------0-------0---0---0---2--|2-------2-------2---2---2---2--|
A|2-------2-------2---2---2---2--|2-------2-------2---2---2---2--|
E|3-------3-------3---3---3---0--|0-------0-------0---0---0---0--|
feeling you holding me

e|3------ 3---3-- ----3-- ---0---|----0-- ----0-- ----0-- ----0--|
B|3-------3---3-------3------0---|----0-------0-------0-------0--|
G|0-------0---0-------0------0---|----0-------0-------0-------0--|
D|-------------------------------|-------------------------------|
A|-------------------------------|-------------------------------|
E|-------------------------------|-------------------------------|

C D
e|0------ 0------ 0---0-- 0------|2------ 2------ 2---2-- 2---2--|
B|1-------1-------1---1---1------|3-------3-------3---3---3---3--|
G|0-------0-------0---0---0------|2-------2-------2---2---2---2--|
D|2-------2-------2---2---2------|0-------0-------0---0---0---0--|
A|3-------3-------3---3---3------|-------------------------------|
E|3-------3-------3---3---3------|-------------------------------|
tight tight, yeah It's been a

e|------- ------- ------- -------|------- ------- ------- -------|
B|1-----------1-------1-------1--|----3-------3-------3-------3--|
G|3-----------3-------3-------3--|----5-------5-------5-------5--|
D|2-----------2-------2-------2--|----4-------4-------4-------4--|
A|3------------------------------|-------------------------------|
E|-------------------------------|-------------------------------|


G C G
e|3------ 3------ 3---3-- 3---3--|3------ 3------ 3---3-- 3---3--|
B|3-------3-------1---1---1---3--|3-------3-------3---3---3---3--|
G|0-------0-------0---0---0---0--|0-------0-------0---0---0---0--|
D|0-------0-------2---2---2---0--|0-------0-------0---0---0---0--|
A|2-------2-------3---3---3---2--|2-------2-------2---2---2---2--|
E|3-------3-------------------3--|3-------3-------3---3---3---3--|
hard day's night and I've been

e|3------ 3------ ----3-- ----3--|3---3-- ----3-- ----3-- ----3--|
B|3-------3-----------3-------3--|3---3-------3-------3-------3--|
G|0-------0-----------0-------0--|0---0-------0-------0-------0--|
D|-------------------------------|-------------------------------|
A|-------------------------------|-------------------------------|
E|-------------------------------|-------------------------------|


F9 G
e|3------ 3------ 3---3-- 3---3--|3------ 3------ 3---3-- 3---3--|
B|1-------1-------1---1---1---1--|3-------3-------3---3---3---3--|
G|2-------2-------2---2---2---2--|0-------0-------0---0---0---0--|
D|1-------1-------1---1---1---1--|0-------0-------0---0---0---0--|
A|3-------3-------3---3---3---3--|2-------2-------2---2---2---2--|
E|1-------1-------1---1---1---1--|3-------3-------3---3---3---3--|
working like a dog It's been a

e|1------ ----1-- ----1-- ----1--|3---3-- ----3-- ----3-- ----3--|
B|1-----------1-------1-------1--|3---3-------3-------3-------3--|
G|2-----------2-------2-------2--|0---0-------0-------0-------0--|
D|-------------------------------|-------------------------------|
A|-------------------------------|-------------------------------|
E|-------------------------------|-------------------------------|


G C G
e|3------ 3------ 3---3-- 3---3--|3------ 3------ 3---3-- 3---3--|
B|3-------3-------1---1---1---1--|3-------3-------3---3---3---3--|
G|0-------0-------0---0---0---0--|0-------0-------0---0---0---0--|
D|0-------0-------2---2---2---2--|0-------0-------0---0---0---0--|
A|2-------2-------3---3---3---3--|2-------2-------2---2---2---2--|
E|3-------3----------------------|3-------3-------3---3---3---3--|
hard day's night I should be

e|------- 3---3-- ----3-- ----3--|----3-- 3------ ----3-- ----3--|
B|--------3---3-------3-------3--|----3---3-----------3-------3--|
G|--------0---0-------0-------0--|----0---0-----------0-------0--|
D|-------------------------------|-------------------------------|
A|-------------------------------|-------------------------------|
E|-------------------------------|-------------------------------|


F9 G
e|3------ 3------ 3---3-- 3---3--|3------ 3------ 3---3-- 3---3--|
B|1-------1-------1---1---1---1--|3-------3-------3---3---3---3--|
G|2-------2-------2---2---2---2--|0-------0-------0---0---0---0--|
D|1-------1-------1---1---1---1--|0-------0-------0---0---0---0--|
A|3-------3-------3---3---3---3--|2-------2-------2---2---2---2--|
E|1-------1-------1---1---1---1--|3-------3-------3---3---3---3--|
sleeping like a log But when I

e|1------ 1---1-- ----1-- ----1--|3---3-- ----3-- ----3-- ----3--|
B|1-------1---1-------1-------1--|3---3-------3-------3-------3--|
G|2-------2---2-------2-------2--|0---0-------0-------0-------0--|
D|-------------------------------|-------------------------------|
A|-------------------------------|-------------------------------|
E|-------------------------------|-------------------------------|


C D
e|0------ 0------ 0---0-- 0---0--|2------ 2------ 2---2-- 2---3--|
B|1-------1-------1---1---1---1--|3-------3-------3---3---3---3--|
G|0-------0-------0---0---0---0--|2-------2-------2---2---2---0--|
D|2-------2-------2---2---2---2--|0-------0-------0---0---0---0--|
A|3-------3-------3---3---3---3--|-------------------------------|
E|3-------3-------3---3---3---3--|-------------------------------|
get home to you I'll find the things that you do will make me

e|----0-- ----0-- ------- 0------|2------ ----2-- ----2-- ----3--|
B|----1-------1-----------1------|3-----------3-------3-------3--|
G|----0-------0-----------0------|2-----------2-------2-------0--|
D|-------------------------------|-------------------------------|
A|-------------------------------|-------------------------------|
E|-------------------------------|-------------------------------|


G C G
e|3------ 3------ 3---3-- 3---3--|3------ 3------ 3---3-- 3---3--|
B|3-------3-------1---1---1---3--|3-------3-------3---3---3---3--|
G|0-------0-------0---0---0---0--|0-------0-------0---0---0---0--|
D|0-------0-------2---2---2---0--|0-------0-------0---0---0---0--|
A|2-------2-------3---3---3---2--|2-------2-------2---2---2---2--|
E|3-------3-------------------3--|3-------3-------3---3---3---3--|
feel all.........right

e|------- 3------ 3---3-- ----3--|----3-- ----3-- ----3-- 3---3--|
B|--------0-------1---1-------0--|----3-------3-------3---3---3--|
G|--------0-------0---0-------0--|----0-------0-------0---0---0--|
D|-------------------------------|-------------------------------|
A|-------------------------------|-------------------------------|
E|-------------------------------|-------------------------------|




Solo
G C G
e|------- ------- ------- -------|------- ------- ------- -------|
B|-------------------------------|-------------------------------|
G|-------------------------------|-------------------------------|
D|-------------------------------|-------------------------------|
A|----------------1---3---1--3/5-|-------------------------------|
E|3-----------3------------------|-------------------------------|

e|------- ------- ------- -------|------- ------- ------- -------|
B|----------------11-13---1113/15|-------------------------------|
G|12----------12-----------------|-------------------------------|
D|-------------------------------|-------------------------------|
A|-------------------------------|-------------------------------|
E|-------------------------------|-------------------------------|

F9 G
e|------- ------- ------- -------|------- ------- ------- -------|
B|-------------------------------|-------------------------------|
G|-------------------------------|-------------------------------|
D|--0H3---0H3---0H3---0H3--------|-------------------------------|
A|3-----3-----3-----3-----3P1----|-------------------------------|
E|----------------------------3--|3------------------------------|

e|--1013--1013--1013- 1013 ------|------- ------- ------- -------|
B|13----13----13----13----1311---|-------------------------------|
G|----------------------------12-|12-----------------------------|
D|-------------------------------|-------------------------------|
A|-------------------------------|-------------------------------|
E|-------------------------------|-------------------------------|


G C G
e|------- ------- ------- -------|------- ------- ------- -------|
B|-------------------------------|-------------------------------|
G|-------------------------------|-------------------------------|
D|-------------------------------|-------------------------------|
A|----------------1---3---1--3/5-|-------------------------------|
E|3-----------3------------------|-------------------------------|

e|------- ------- ------- -------|------- ------- ------- -------|
B|----------------11-13---1113/15|-------------------------------|
G|12----------12-----------------|-------------------------------|
D|-------------------------------|-------------------------------|
A|-------------------------------|-------------------------------|
E|-------------------------------|-------------------------------|


F9 G
e|------- ------- ------- -------|------- ------- ------- -------|
B|-------------------------------|-------------------------------|
G|-------------------------------|-------------------------------|
D|--0H3---0H3---0H3---0H3--------|-------------------------------|
A|3-----3-----3-----3-----3P1----|------------------------0---2--|
E|----------------------------3--|3-------------------3----------|
So why on
e|--1013--1013--1013- 1013 ------|------- ------- ------- -------|
B|13----13----13----13----1311---|-------------------------------|
G|----------------------------12-|12-----------------------------|
D|-------------------------------|-------------------------------|
A|-------------------------------|-------------------------------|
E|-------------------------------|-------------------------------|


C D
e|0------ 0------ 0---0-- 0---0--|2------ 2------ 2---2-- 2---3--|
B|1-------1-------1---1---1---1--|3-------3-------3---3---3---3--|
G|0-------0-------0---0---0---0--|2-------2-------2---2---2---0--|
D|2-------2-------2---2---2---2--|0-------0-------0---0---0---0--|
A|3-------3-------3---3---3---3--|-------------------------------|
E|3-------3-------3---3---3---3--|-------------------------------|
earth should I moan 'cause when I get you alone you know I

e|------- ----0-- ----0-- ----0--|------- ----2-- ----2-- ----2--|
B|------------1-------1-------1--|------------3-------3-------3--|
G|------------0-------0-------0--|------------2-------2-------2--|
D|-------------------------------|-------------------------------|
A|3------------------------------|-------------------------------|
E|-------------------------------|-------------------------------|


G C G
e|3------ 3------ 3---3-- 3---3--|3------ 3------ 3---3-- 3---3--|
B|3-------3-------1---1---1---3--|3-------3-------3---3---3---3--|
G|0-------0-------0---0---0---0--|0-------0-------0---0---0---0--|
D|0-------0-------2---2---2---0--|0-------0-------0---0---0---0--|
A|2-------2-------3---3---3---2--|2-------2-------2---2---2---2--|
E|3-------3-------------------3--|3-------3-------3---3---3---3--|
feel O. K. When I'm home

e|3------ 3------ ----3-- ----3--|----3-- ----3-- ----3-- ----2--|
B|3-------3-----------1-------3--|----3-------3-------3-------3--|
G|0-------0-----------0-------0--|----0-------0-------0-------4--|
D|-------------------------------|-------------------------------|
A|-------------------------------|-------------------------------|
E|-------------------------------|-------------------------------|


Bm Em
e|2------ 2---2-- 2---2-- 2---0--|0------ 0------ 0---0-- 0---0--|
B|3-------3---3---3---3---3---0--|0-------0-------0---0---0---0--|
G|4-------4---4---4---4---4---0--|0-------0-------0---0---0---0--|
D|4-------4---4---4---4---4------|2-------2-------2---2---2---2--|
A|2-------2---2---2---2---2------|2-------2-------2---2---2---2--|
E|-------------------------------|0-------0-------0---0---0---0--|
everything seems to be

e|------- 2---2-- ----2-- ----0--|------- 0---0-- ----0-- ----2--|
B|--------3---3-------3-------0--|--------0---0-------0-------3--|
G|--------4---4-------4-------0--|--------0---0-------0-------4--|
D|-------------------------------|-------------------------------|
A|-------------------------------|-------------------------------|
E|-------------------------------|-------------------------------|


Bm
e|2------ 2------ 2---2-- 2---2--|2------ 2------ 2---2-- 2---3--|
B|3-------3-------3---3---3---3--|3-------3-------3---3---3---3--|
G|4-------4-------4---4---4---4--|4-------4-------4---4---4---0--|
D|4-------4-------4---4---4---4--|4-------4-------4---4---4---0--|
A|2-------2-------2---2---2---2--|2-------2-------2---2---2---2--|
E|-------------------------------|----------------------------3--|
right When I'm home

e|------- 2---2-- ----2-- ----2--|------- 2---2-- ----2-- ----2--|
B|--------3---3-------3-------3--|--------3---3-------3-------3--|
G|--------4---4-------4-------4--|--------4---4-------4-------4--|
D|-------------------------------|-------------------------------|
A|-------------------------------|-------------------------------|
E|-------------------------------|-------------------------------|


G Em
e|3------ 3------ 3---3-- 3---0--|0------ 0------ 0---0-- 0---0--|
B|3-------3-------3---3---3---0--|0-------0-------0---0---0---0--|
G|0-------0-------0---0---0---0--|0-------0-------0---0---0---0--|
D|0-------0-------0---0---0---2--|2-------2-------2---2---2---2--|
A|2-------2-------2---2---2---2--|2-------2-------2---2---2---2--|
E|3-------3-------3---3---3---0--|0-------0-------0---0---0---0--|
feeling you holding me

e|3------ 3---3-- ----3-- ---0---|----0-- ----0-- ----0-- ----0--|
B|3-------3---3-------3------0---|----0-------0-------0-------0--|
G|0-------0---0-------0------0---|----0-------0-------0-------0--|
D|-------------------------------|-------------------------------|
A|-------------------------------|-------------------------------|
E|-------------------------------|-------------------------------|

C D
e|0------ 0------ 0---0-- 0------|2------ 2------ 2---2-- 2---2--|
B|1-------1-------1---1---1------|3-------3-------3---3---3---3--|
G|0-------0-------0---0---0------|2-------2-------2---2---2---2--|
D|2-------2-------2---2---2------|0-------0-------0---0---0---0--|
A|3-------3-------3---3---3------|-------------------------------|
E|3-------3-------3---3---3------|-------------------------------|
tight tight, yeah It's been a

e|------- ------- ------- -------|------- ------- ------- -------|
B|1-------1---1-------1-------1--|----3-------3-------3-------3--|
G|0-------0---0-------0-------0--|----5-------5-------5-------5--|
D|2-------2---2-------2-------2--|----4-------4-------4-------4--|
A|3------------------------------|-------------------------------|
E|-------------------------------|-------------------------------|


G C G
e|3------ 3------ 3---3-- 3---3--|3------ 3------ 3---3-- 3---3--|
B|3-------3-------1---1---1---3--|3-------3-------3---3---3---3--|
G|0-------0-------0---0---0---0--|0-------0-------0---0---0---0--|
D|0-------0-------2---2---2---0--|0-------0-------0---0---0---0--|
A|2-------2-------3---3---3---2--|2-------2-------2---2---2---2--|
E|3-------3-------------------3--|3-------3-------3---3---3---3--|
hard day's night and I've been

e|3------ 3------ ----3-- ----3--|3---3-- ----3-- ----3-- ----3--|
B|3-------3-----------3-------3--|3---3-------3-------3-------3--|
G|0-------0-----------0-------0--|0---0-------0-------0-------0--|
D|-------------------------------|-------------------------------|
A|-------------------------------|-------------------------------|
E|-------------------------------|-------------------------------|


F9 G
e|3------ 3------ 3---3-- 3---3--|3------ 3------ 3---3-- 3---3--|
B|1-------1-------1---1---1---1--|3-------3-------3---3---3---3--|
G|2-------2-------2---2---2---2--|0-------0-------0---0---0---0--|
D|1-------1-------1---1---1---1--|0-------0-------0---0---0---0--|
A|3-------3-------3---3---3---3--|2-------2-------2---2---2---2--|
E|1-------1-------1---1---1---1--|3-------3-------3---3---3---3--|
working like a dog It's been a

e|1------ ----1-- ----1-- ----1--|----3-- ----3-- ----3-- ----3--|
B|1-----------1-------1-------1--|----3-------3-------3-------3--|
G|2-----------2-------2-------2--|----0-------0-------0-------0--|
D|-------------------------------|-------------------------------|
A|-------------------------------|-------------------------------|
E|-------------------------------|-------------------------------|


G C G
e|3------ 3------ 3---3-- 3---3--|3------ 3------ 3---3-- 3---3--|
B|3-------3-------1---1---1---1--|3-------3-------3---3---3---3--|
G|0-------0-------0---0---0---0--|0-------0-------0---0---0---0--|
D|0-------0-------2---2---2---2--|0-------0-------0---0---0---0--|
A|2-------2-------3---3---3---3--|2-------2-------2---2---2---2--|
E|3-------3----------------------|3-------3-------3---3---3---3--|
hard day's night I should be

e|3------ 3---3-- ----3-- ----3--|----3-- 3------ ----3-- ----3--|
B|3-------3---3-------3-------3--|----3---3-----------3-------3--|
G|0-------0---0-------0-------0--|----0---0-----------0-------0--|
D|-------------------------------|-------------------------------|
A|-------------------------------|-------------------------------|
E|-------------------------------|-------------------------------|


F9 G
e|3------ 3------ 3---3-- 3---3--|3------ 3------ 3---3-- 3---3--|
B|1-------1-------1---1---1---1--|3-------3-------3---3---3---3--|
G|2-------2-------2---2---2---2--|0-------0-------0---0---0---0--|
D|1-------1-------1---1---1---1--|0-------0-------0---0---0---0--|
A|3-------3-------3---3---3---3--|2-------2-------2---2---2---2--|
E|1-------1-------1---1---1---1--|3-------3-------3---3---3---3--|
sleeping like a log But when I

e|------- 3---3-- ----3-- ----3--|----3-- ----3-- ----3-- ----3--|
B|1-------1---1-------1-------3--|----3-------3-------3-------3--|
G|2-------2---2-------2-------0--|----0-------0-------0-------0--|
D|3------------------------------|-------------------------------|
A|-------------------------------|-------------------------------|
E|-------------------------------|-------------------------------|


C D
e|0------ 0------ 0---0-- 0---0--|2------ 2------ 2---2-- 2---3--|
B|1-------1-------1---1---1---1--|3-------3-------3---3---3---3--|
G|0-------0-------0---0---0---0--|2-------2-------2---2---2---0--|
D|2-------2-------2---2---2---2--|0-------0-------0---0---0---0--|
A|3-------3-------3---3---3---3--|-------------------------------|
E|3-------3-------3---3---3---3--|-------------------------------|
get home to you I'll find the things that you do will make me

e|0------ ----0-- 0---0-- 0------|2------ 2------ ----2-- ----3--|
B|1-----------1---1---1---1------|3-------3-----------3-------3--|
G|0-----------0---0---0---0------|2-------2-----------2-------0--|
D|-------------------------------|-------------------------------|
A|-------------------------------|-------------------------------|
E|-------------------------------|-------------------------------|


G C G
e|3------ 3------ 3---3-- 3---3--|3------ 3------ 3---3-- 3---3--|
B|3-------3-------1---1---1---3--|3-------3-------3---3---3---3--|
G|0-------0-------0---0---0---0--|0-------0-------0---0---0---0--|
D|0-------0-------2---2---2---0--|0-------0-------0---0---0---0--|
A|2-------2-------3---3---3---2--|2-------2-------2---2---2---2--|
E|3-------3-------------------3--|3-------3-------3---3---3---3--|
feel all.........right You know I

e|------- 3------ 3---3-- ----3--|----3-- 3---3-- ----3-- 3------|
B|--------0-------1---1-------0--|----3---3---3-------3---3------|
G|--------0-------0---0-------0--|----0---0---0-------0---0------|
D|-------------------------------|-------------------------------|
A|-------------------------------|-------------------------------|
E|-------------------------------|-------------------------------|


G C G
e|3------ 3------ 3---3-- 3---3--|3------ 3------ 3---3-- 3---3--|
B|3-------3-------1---1---1---3--|3-------3-------3---3---3---3--|
G|0-------0-------0---0---0---0--|0-------0-------0---0---0---0--|
D|0-------0-------2---2---2---0--|0-------0-------0---0---0---0--|
A|2-------2-------3---3---3---2--|2-------2-------2---2---2---2--|
E|3-------3-------------------3--|3-------3-------3---3---3---3--|
feel all.........right You know I

e|3------ 3------ 3---3-- ----3--|----3-- ----3-- ----3-- 3------|
B|3-------0-------1---1-------3--|----3-------3-------3---3------|
G|0-------0-------0---0-------0--|----0-------0-------0---0------|
D|-------------------------------|-------------------------------|
A|-------------------------------|-------------------------------|
E|-------------------------------|-------------------------------|

(.
G C D7sus4
e|3------ 3------ 3---3-- 3---3--|3------ ------- ------- -------|
B|3-------3-------1---1---1---1--|1------------------------------|
G|0-------0-------0---0---0---2--|2------------------------------|
D|0-------0-------2---2---2---0--|0------------------------------|
A|2-------2-------3---3---3---0--|0------------------------------|
E|3-------3----------------------|-------------------------------|
feel all.........right
e|3------ 3------ 3---3-- -------|3------ ------- 1------ -------|
B|3-------3-------3---3----------|----1-------1-------1-------1--|
G|0-------0-------0---0----------|--------2---------------2------|
D|-------------------------------|-------------------------------|
A|-------------------------------|-------------------------------|
E|-------------------------------|-------------------------------|



e|3------ ------- 1------ -------|3------ ------- 1------ ----1--|
B|----1-------1-------1-------1--|----1-------1-------1----------|
G|--------2---------------2------|--------2---------------2------|
D|-------------------------------|-------------------------------|
A|-------------------------------|-------------------------------|
E|-------------------------------|-------------------------------|
.............................Fade..............................

e|3------ ------- 1------ -------|3------ ------- 1------ ----1--|
B|----1-------1-------1-------1--|----1-------1-------1----------|
G|--------2---------------2------|--------2---------------2------|
D|-------------------------------|-------------------------------|
A|-------------------------------|-------------------------------|
E|-------------------------------|-------------------------------|
...............................................................






B Bend
R Release
/ slide up
\ slide down
H hammer-on
P pull-off
~ vibrato
+ harmonic
x Mute note
. - play note like a dot in standard notation
^ - ties two notes together
(. Pause

  • pjvill

    Submitted by

    pjvill at Wed 30 Nov, 2005 8:50 am

  • <
Copyrights
Author: ?
Composer: ?
Publisher: ?

Reactions

CommonCrawl [Bot]

Follow Muzikum