The Beatles

The Beatles
While My Guitar Gently Weeps (Miscellaneous tab)

Tabbed by Ccharles on Nov 3, 2005

This is a unique conversion of Jake Shimabukuro�s �While My Ukulele Gently Weeps�, which is HIS interpretation of �While My Guitar Gently Weeps� by the Beatles. The original piece is a Ukulele, so the low E and A strings need to be muted. THIS IS NECESSARY FOR THE SONG! I use tape and tissue paper to mute them. Any questions email me ccharles@spambob.net.

To view the orignal video with sound, simply google �while my ukulele gently weeps�, although if you�re here, you�ve probably already seen the video.

This version is several keys below Jake�s version because it is for guitar.

If the tab doesn�t line up, copy and paste it, make sure the font is COURIER.

Tuning = standard
h = hammer
p = pull off
s = slide
� = repeat this strum
m = mute



E-------------0---1-----------0---1------------0---1----3-1--------------3-0h3p0--1-1-1-
B-------1h3---------3---3-----------3----3----------3---3---3---3-3s10-6-3------1-3-3-3-
G---2-2-----2---2-----2-3---3---3-----3--4---4---4---4--4-----4---2s9--5-3--------2-2-2
D-------0-----0-----------0----------------0----------------------0------0--------0-0-0
A---
E--

E--0-0--0--0--------2-2-2-0-2s9--5--2-2-0-2--5--3-3m-0-0-0h2-0-2--5-5--2-0-----2-----3-----5
B--3s10-10-10-------3-3-3-3-3s10-7--3-3-3-3--7--2-2m-0-2-0h2-0-2--7-7--3-2------------------
G--2s9--9--9--------2-2-2-2-2s9--7--2-2-2-2--7--3-3m-0-2-0--------7-7--2-2------------------
D--0-0--0--0--------0-0-0-0-0-------0-0-0-0-----0-0m-0-2-----------------2-2s4---4s5---5s7--
A
E

E-5-5-------2-2-2-0-2s9--5--2-2-0-2--5--3-3m-0-0-0h2-0-2--5-5--2-0-0-0-0--0--0-slap
B-0-0-------3-3-3-3-3s10-7--3-3-3-3--7--2-2m-0h2-0h2-0-2--7-7--3-2-2-2-2--0--2-slap
G-x-x-------2-2-2-2-2s9--7--2-2-2-2--7--3-3m-0h2-0--------7-7--2-2-2-2-2--0--2-slap
D-7-7-------0-0-0-0-0-------0-0-0-0-----0-0m-0h2-----------------2-2-2-2--2--2-slap
A
E





E--1-�-�-�-1-�-�-�-1-�-�-�-1-1-1-1-3-3-3-3s1-1---1-�-�-�-3-�-�-�-5-�-�-�-6-�-�-�-
B--3-------3-------3-------3-3-3-3-3-3-3-3-3-3---3-------5-------5-------6-------
G--2-------3-------4-------3-3-3-3-3-3-3-3-3-3---2-------4-------5-------6-------
D--3-------3-------3-------3-3-3-3-3-3-3-3-3-3---3-------5-------0-------0-------
A
E

E--10-�--------------------------�------------------------�--------------------------�
B--10-�--------------------------�------------------------�--------------------------�
G--10-�--------------------------�------------------------�--------------------------�
D--0-0-0-0-0-0-0-0-0-0-10-x-10-x-10-x-10-x-10-10-9-x-9-x-9-x-9-x-8-8-8-8-8-8-8-8-8-8-8
A
E

E--10-�--------------------------�------------------------�--------------------------�
B--10-�--------------------------�------------------------�--------------------------�
G--10-�--------------------------�------------------------�--------------------------�
D--0-0-0-0-0-0-0-0-0-0-10-x-10-x-10-x-10-x-10-10-9-x-9-x-9-x-9-x-8-8-8-8-8-8-8-8-8-8-8
A
E

OptimusPrime

Submitted by OptimusPrime at Fri 04 Nov, 2005 2:33 am

Author: ?
Composer: ?
Publisher: ?
Language: English

Reactions

CommonCrawl [Bot]

Follow Muzikum